Adema - Giving In Chords & Tabs

 

Giving In Chords & Tabs

Adema Chords & Tabs

Version: 10 Type: Tab 0 ratings
1 star 2 stars 3 stars 4 stars 5 stars
comments

Giving In Tab

THIS TAB IS NEAR ENOUGH 100% CORRECT, IM NOT SURE ABOUT THE VERSE THOUGH BUT ITS CLOSE

INTRO

E-------------------------------------------
B---10--10-10-10-10-10---10-10-10-10-10-10--
G-10--10----------------9--9----------------
D-------------------------------------------  
A-------------------------------------------
E-------------------------------------------

Heavy Part 

E-------------------------------------------------
B-------------------------------------------------
G------5-6-5------3-5-3-------3-4-3---------------
D-8-8---------4-4--------1-1--------1-1--3-4-3----  
A-8-8---------4-4--------1-1--------1-1-----------
E-8-8---------4-4--------1-1--------1-1-----------


CHORUS( Quiet so you can hardly hear it)
E---6--6-6-6-6-6--6--6-6-6-6-6--------------
B--6-6-----------5-5------------------------
G-------------------------------------------
D-------------------------------------------  
A-------------------------------------------
E-------------------------------------------

VERSE
E--------------------------------------------------
B--------------------------------------------------
G--------------------------------------------------
D--8-8--11-11----1-1--8-8----3-3--5-5----2-2--7-7--
A--8-8--11-11----1-1--8-8----3-3--5-5----2-2--7-7--
E--8-8--11-11----1-1--8-8----3-3--5-5----2-2--7-7--

SOLO
[ Tab from: http://www.guitartabs.cc/tabs/a/adema/giving_in_tab_ver_10.html ]
E-------------------------------------------------------
B----------------------------------------------------11--
G---------------11--------------------------------------
D--------11--13----11-13---11-13-11---------11-13-13-------
A-13--13-----------------------------13--13--------------
E--------------------------------------------------------

E------------------------------------------------------
B------------------------------------------------------
G----------------------------------11--------------------
D-11--13---11-13-11-------11-13-11----11-13--11-13-11--
A-------------------11-11-----------------------------13-- 
E-------------------------------------------------

E----------------------------------------------------
B--------------11------------------------------------
G----------------------------------------------------
D-----11-13-11----11-13--11-13-11--10-9-10-----------
A--13----------------------------------------13------
E----------------------------------------------------

BIT AFTER SOLO WHERE IT GOES QUIET THEN HE SCREAMS

E-----------------------------------------------
B-----------------------------------------------
G-----------------------------------------------
D---7-7-----3-3----2-2----1-1--4-4--------------
A---7-7-----3-3----2-2----1-1--4-4--------------
E---7-7-----3-3----2-2----1-1--4-4--------------

FINISH ON
E---------------
B---------------
G---------------
D--7------------
A--7------------
E--7------------



ORDER

INTRO   
HEAVY PART
CHORUS
VERSE
HEAVY PART
CHORUS
VERSE
SOLO
BIT AFTER SOLO
HEAVY PART

IF YOU NEED ANY OTHER ADEMA SONGS TABBED EMAIL ME AT 
RageAgainstLP@aol.com
Comments