Adema - Giving In Chords & Tabs

 

Giving In Chords & Tabs

Adema Chords & Tabs

Version: 2 Type: Bass Tab 0 ratings
1 star 2 stars 3 stars 4 stars 5 stars
comments

Giving In Bass Tab

Song:  Giving In
Band:  Adema
Tabbed by:  Mudvayne4ever

I have not seen many tabs of this song so I am tabbing this song.  
I am pretty sure this is correct, I am not sure about the Chorus. 
The bassist of Adema plays a 5-string but in this song I don’t hear in used much, 
only in one part of the song.

Standard tuning I think

INTRO  you can hear this when the drums kick in.

G |--------------------------------------------|
D |--------------------------------------------|
A |-------2--------0--------------------------|
E |---4----------------------------------------|
B |--------------------------------------------|

VERSE/PRE-VERSE

G |--------------------------------------------------------|
D |--------------------------------------------------------|
A |--------------------------------------------------------|
E |------4-4-------7-7-------9-9------9-9--------------|
B |--------------------------------------------------------|

CHORUS

G |------------------------------------------------------------------|
D |------------------------------------------------------------------|
A |----------------------------------------9--9--9--9--9----------|
E |----6--6-6----9--9-9----11-11-11----------------------------|
B |------------------------------------------------------------------|

During the solo play the Verse/Pre-verse.

BRAKDOWN  (talking…”I look forward…”)

G |--------------------------------------------------------|
D |--------------------------------------------------------|
A |---------------------------------------------------------|
E |---------------------------------------------------------|
B |----0*--------4*--------2*-------0*------------------|

That’s how I play it in my band and it sounds right.


=========


Adema - Giving In
Tabbed By:  Jimm Raymer
E-mail:  WetWillie540@aol.com

Intro-let guitar play for the first 2 times join on the third…start 
playing softly, then play hard

G---------------------------------------------------------------------------------------
D---------------------------------------------------------------------------------------                        
A--------------------------------------------------------------------2-2-2-2-2-2-2-2
E-3-3-3-3-3-3-3-3-5-5-5-5-5-5-5-5---6-6-6-6-6-6-6-6---------------------

Fill-In-play heavy…keep playing over and over again till he starts singing---Pause after 1-1

G---------------------------------------------------------------------------------------
D---------------------------------------------------------------------------------------
A---------------------------------------------------------------------------------------
E---3-3----4-4----1-1----1-1--------------------------------------------------------

Verse---repeat until the song goes into the chorus (only play the 2-3-2 on the A string the      
 second time you repeat)

G---------------------------------------------------------------------------------------
D---------------------------------------------------------------------------------------
A--------------------------------2-3-2------------------------------------------------
E---3-3---1-1---4-4---0-0-----------------------------------------------------------

Chorus---repeat until song goes back into verse
[ Tab from: http://www.guitartabs.cc/tabs/a/adema/giving_in_btab_ver_2.html ]
G----------------------------------------------------------------------------------------------
D----------------------------------------------------------------------------------------------
A----------------------------------------------------------------------------------------------
E---3---3-3-3-3-3-3-3---5---5-5-5-5-5-5-5---7---7-7-7-7-7-7-7---9-9-9-9-9-9-9-9-

Fill-In---play till song goes back into verse---pause after 1-1

G---------------------------------------------------------------------------------------
D---------------------------------------------------------------------------------------
A---------------------------------------------------------------------------------------
E---3-3----4-4----1-1----1-1--------------------------------------------------------

Verse---repeat until the song goes into the chorus 
(only play the 2-3-2 on the A string the  second time you repeat)

G---------------------------------------------------------------------------------------
D---------------------------------------------------------------------------------------
A--------------------------------2-3-2------------------------------------------------
E---3-3---1-1---4-4---0-0-----------------------------------------------------------

Chorus---repeat until song goes into guitar solo

G----------------------------------------------------------------------------------------------
D----------------------------------------------------------------------------------------------
A----------------------------------------------------------------------------------------------
E---3---3-3-3-3-3-3-3---5---5-5-5-5-5-5-5---7---7-7-7-7-7-7-7---9-9-9-9-9-9-9-9-

Verse---play while the guitar is playing solo

G---------------------------------------------------------------------------------------
D---------------------------------------------------------------------------------------
A--------------------------------2-3-2------------------------------------------------
E---3-3---1-1---4-4---0-0-----------------------------------------------------------

Fill-In 2---starts after solo, when it gets soft, but it is building up to a heavy part

G------------------------------------------------------------------------------------------------------
D------------------------------------------------------------------------------------------------------
A------------------------------------------------------------------------------------------------------
E---3------------------------4-----2---1---------------3-------------4-----2---1---1-1-1-1-1-1-1

G------------------------------------------------------------------------------------------------------
D------------------------------------------------------------------------------------------------------
A------------------------------------------------------------------------------------------------------
E---3-3-3-3-3-3-3-3---5-5-5-5-5-5-5-5---7-7-7-7-7-7-7-7------------------------------------

Fill-In---it's the heaviest part of the song so in order to make it sound heavier, hammer/slap these notes

G---------------------------------------------------------------------------------------
D---------------------------------------------------------------------------------------
A---------------------------------------------------------------------------------------
E---3-3----4-4----1-1----1-1--------------------------------------------------------

Chorus---repeat til song ends, let fade out

G----------------------------------------------------------------------------------------------
D----------------------------------------------------------------------------------------------
A----------------------------------------------------------------------------------------------
E---3---3-3-3-3-3-3-3---5---5-5-5-5-5-5-5---7---7-7-7-7-7-7-7---9-9-9-9-9-9-9-9-
Comments