Adema - Giving In Chords & Tabs

 

Giving In Chords & Tabs

Adema Chords & Tabs

Version: 1 Type: Bass Tab 0 ratings
1 star 2 stars 3 stars 4 stars 5 stars
comments

Giving In Bass Tab

   
Song:   Giving In
Artist: Adema
Album:  Adema
Tuning: E,A,D,G

Tabbed by: Steve

Intro  x2      Bass comes in w/ the drums (barely heard)
G-------------------------------------------------------------------
D-------------------------------------------------------------------
A---------2----4----------------------------------------------------
E----4--------------------------------------------------------------

Fill #2  x1
G-------------------------------------------------------------------
D-------------------------------------------------------------------
A-------------------------------------------------------------------
E----0000000--------------------------------------------------------

Chorus  x4
G-------------------------------------------------------------------
D-------------------------------------------------------------------
A--------------2-2-2222--4-4-4444-4-4-4444--------------------------
E----4-4--4444------------------------------------------------------
[ Tab from: http://www.guitartabs.cc/tabs/a/adema/giving_in_btab.html ]
Verse x1
G-------------------------------------------------------------------
D-------------------------------------------------------------------
A-------------------------------------------------------------------
E----4-4--0-0--5-5--0-0--4-4--0-0--5-5------------------------------

Fill #2  x1
G-------------------------------------------------------------------
D----0020-----------------------------------------------------------
A---------210-------------------------------------------------------
E-------------30----------------------------------------------------

Verse    x1
Fill #2  x1
Chorus   x4
 
Post-Chorus  x2
G-------------------------------------------------------------------
D-------------------------------------------------------------------
A---------2-2--4-4--4-4---------------------------------------------
E----4-4------------------------------------------------------------

Verse    x1
Fill #2  x1
Verse    x1
Fill #2  x1
Chorus   x4
Post-Chorus  x2
Verse    x2
Chorus   x4
Post-Chorus  x2

Outro
G-------------------------------------------------------------------
D-------------------------------------------------------------------
A-------------------------------------------------------------------
E----4*-------------------------------------------------------------


                                E-Mail all errors or corrections to 
                                                     Sman5111@aol

Comments