Adema - Do You Hear Me Chords & Tabs

 

Do You Hear Me Chords & Tabs

Adema Chords & Tabs

Version: 1 Type: Tab 0 ratings
1 star 2 stars 3 stars 4 stars 5 stars
comments

Do You Hear Me Tab

Adema-Do You Hear Me
Tuning:drop C-CADGBE

Intro/Verse (guitar1)

E-------------------------------------------------------------------------|
B-------------------------------------------------------------------------|
G-------------------------------------------------------------------------|
D----------4p2----2h4----4-------4/5-4-----------2/3----2h4----4----4/5-4-|
A-------------------------------------------------------------------------|
C--0---0-0------0-----0----0------------2---2-2------0------0-----0-------|

Intro/Verse (guitar2)

E-------------------------------------------------------------------------|
B------------------------------------------------6h9~---------------------|
G-------------------------------------------------------------------------|
D-------------------------------------------------------------------------|
A-------------------------------------------------------------------------|
C-------------------------------------------------------------------------|

Pre-Chorus (both guitars)
[ Tab from: http://www.guitartabs.cc/tabs/a/adema/do_you_hear_me_tab.html ]
E-------------------------------------------------------------------------|
B-------------------------------------------------------------------------|
G--6-6--6-6--5--5--5----6-6--6-6------------------------------------------|
D--6-6--6-6--5--5--5----6-6--6-6--9--9--9---------------------------------|
A--4-4--4-4--3--3--3----4-4--4-4--9--9--9---------------------------------|
C---------------------------------9--9--9---------------------------------|

Chorus (both guitars)

E-------------------------------1--1----1--1--1---------------------------|
B--6--6--6--4--4--4--2--2--2--1-----------------4--1--1-------------------|
G-------------------------------------------------------------------------|
D--------------------------------------------------------6~----4~---9~----|
A--------------------------------------------------------6~----4~---9~----|
C--------------------------------------------------------6~----4~---9~----|

Bridge (guitar2)

E--4-4--4-4~--------------------------------------------------------------|
B-------------------4-4--2---1~-------------------------------------------|
G-------------------------------------------------------------------------|
D-------------------------------------------------------------------------|
A-------------------------------------------------------------------------|
C-------------------------------------------------------------------------|
Comments