Adema - Do What You Want To Do Chords & Tabs

 

Do What You Want To Do Chords & Tabs

Adema Chords & Tabs

Version: 1 Type: Bass Tab 0 ratings
1 star 2 stars 3 stars 4 stars 5 stars
comments

Do What You Want To Do Bass Tab

Adema - Do What You Want To Do
Tuning: Drop D - DADG

Intro:
G|---------------------------------------|
D|---------------------------------------|
A|--3--3333-33---------------------------|
D|-------------55-6--333-33-33-2-2-------|

Verse:
G|---------------------------------------|
D|---------------------------------------|
A|--33333333-11111111--------------------|
D|--------------------33333333-55555555--|
[ Tab from: http://www.guitartabs.cc/tabs/a/adema/do_what_you_want_to_do_btab.html ]
Pre-chorus:
G|---------------------------------------|
D|---------------------------------------|
A|--3--3333-33---------------------------|
D|-------------55-6--333-33-33-2-2-------|

Chorus:
G|---------------------------------------|
D|-------------------1-111-1-11-11-------|
A|--3-333-3-33-33-11---------------11----|
D|---------------------------------------|

Bridge:
G|---------------------------------------|
D|---------------------------------------|
A|---------------------------------------|
D|--3~------3~------3~------3~-----------|
Comments