Adema - Close Friends Chords & Tabs

 

Close Friends Chords & Tabs

Adema Chords & Tabs

Version: 3 Type: Tab 0 ratings
1 star 2 stars 3 stars 4 stars 5 stars
comments

Close Friends Tab

   
Adema
"Close Friends"
self titled cd
Tuning: Drop A: A E A D F# B
tabbed by robert walden

intro (distortion w/ wah, because of wah i may have too many repititions
for each note or not enough or what not, just work with it)
-------------------------------------------------------------------
-------16---16-14-16-------19-19-18-------16---16-14-16----------14
-15-15---15----------16-17----------15-15----15---------16-17-17---
-------------------------------------------------------------------
-------------------------------------------------------------------
-------------------------------------------------------------------

chorus (distortion)
---------------------------
---------------------------
----------4-4-4-------3-3-3
-XX-1-1-1-4-4-4-4-4-4-3-3-3
-XX-1-1-1-2-2-2-4-4-4-1-1-1
-XX-1-1-1-------4-4-4------ do this 4 times
[ Tab from: http://www.guitartabs.cc/tabs/a/adema/close_friends_tab_ver_3.html ]
verse (distortion w/wah)
-----------------------------------
-----------------------------------
-13---12-----16------13---12-----16
-----------------------------------
-----------------------------------
-----------------------------------

..chorus with another guitar doing intro.....
..second verse is same as first..............
..second chorus is same as first.............
..first part of bridge isnt guitar but a synthesizer...

second part of bridge (clean) "makes me go insane......"
---------------------------
---------------------------
---------------------------
-1-1-1--5-5-5--4-4-4--2-2-2
-1-1-1--5-5-5--4-4-4--2-2-2
-1-1-1--5-5-5--4-4-4--2-2-2 do this 4 times

..third chorus is same as first 2......

Thats it!!!!
listen to the song to figure out exact timing, Im me at kornfellow91 to leave
comment or leave one in correction box above, more adema songs coming soon in
this tuning...i think the actual official guitar tuning is B E A D F# B tuned
half step down, but i was in drop a and figured out a crap load of adema songs
with it so ya..thanks
Comments