Adema - Close Friends Chords & Tabs

 

Close Friends Chords & Tabs

Adema Chords & Tabs

Version: 1 Type: Bass Tab 0 ratings
1 star 2 stars 3 stars 4 stars 5 stars
comments

Close Friends Bass Tab

Band: Adema
Song: Close Friends
Tabbed By: BlAdE
~ = Sustain note
s = slap

Intro and chorus
G\---------------------------------------------------------------|
D\---------------------------------------------------------------|
A\---------------------------------------------------------------|
E\---------------------------------------------------------------|
B\--s0s0-s0--0-0-0-0--3-3-3-3--1-1-1-1--3-1--s0s0-s0--|
                                                                                        > Repeat 2X
G\---------------------------------------------------------------|
D\---------------------------------------------------------------|
A\---------------------------------------------------------------|
E\---------------------------------------------------------------|
B\---0-0-0-0--3-3-3-3--1-1-1-1--3-1--0000---------------|
[ Tab from: http://www.guitartabs.cc/tabs/a/adema/close_friends_btab.html ]
Verse
G\---------------------------------------------------------------|
D\----------------REPEAT 6X------------------------------|
A\---------------------------------------------------------------|
E\---------------------------------------------------------------|
B\---0~---3~---1~---0~---------------------------------------|
After this, it goes into the second part of the chorus

Bridge
G\---------------------------------------------------------------|
D\----------------REPEAT 4X------------------------------|
A\---------------------------------------------------------------|
E\---------------------------------------------------------------|
B\----0~--3~--0~----------------------------------------------|

G\---------------------------------------------------------------|
D\----------------REPEAT 4X------------------------------|
A\---------------------------------------------------------------|
E\---------------------------------------------------------------|
B\----0-0-0-0--3-3-3-3---1-1-1-1---0000-0-0-------------|

Enjoy!!
Any questions E-Mail me at DaveL22@onebox.com
Comments