Adema - Blow It Away Chords & Tabs

 

Blow It Away Chords & Tabs

Adema Chords & Tabs

Version: 1 Type: Tab 0 ratings
1 star 2 stars 3 stars 4 stars 5 stars
comments

Blow It Away Tab

This is the intro/chorus to blow it away
Db)--6^7777777-10-10-10-10-5555^44444412-12-12-12/888--|
Ab)--6-7777777-10-10-10-10-5555-44444412-12-12-12/888--|
Db)--6-7777777-10-10-10-10-5555-44444412-12-12-12/888--|
Gb)----------------------------------------------------|
Bb)----------------------------------------------------|
Eb)----------------------------------------------------|

2nd part
Db)6^7777777/10-10-10-10-5555^444444-000--|
Ab)6-7777777/10-10-10-10-5555-444444-000--|
Db)6-7777777/10-10-10-10-5555-444444-000--|
Gb)---------------------------------------|
Bb)---------------------------------------|
Eb)---------------------------------------|


Verse
This is the bass for the verse as if played on an electric guitar

Bb)--------------------------3333^222222-----------------|
Db)--6^7777777---10-10-10-10-------------12-12-12-12-888-|
Ab)------------------------------------------------------|
Db)------------------------------------------------------|
Gb)------------------------------------------------------|
[ Tab from: http://www.guitartabs.cc/tabs/a/adema/blow_it_away_tab.html ]
Bb)--------------------------3333^222222-7777------------|
Db)--6^7777777---10-10-10-10-----------------------------|
Ab)------------------------------------------------------|
Db)------------------------------------------------------|
Gb)------------------------------------------------------|

End of verse
Db)12-12-12-12-888--|
Ab)12-12-12-12-888--|
Db)12-12-12-12-888--|

Interlude
                               P.M.--|
Db)--6^777-5^444-5-22223333-1-1--1-1-0-----------------|
Ab)--6-777-5-444-5-22223333-1-1--1-1-0-----------------|
Db)--6-777-5-444-5-22223333-1-1--1-1-0-----------------|
Gb)----------------------------------------------------|
Bb)----------------------------------------------------|
Eb)----------------------------------------------------|

 End of interlude
    P.M.--|
Db)--2^3-3-0---------------------|
Ab)--2-3-3-0---------------------|
Db)----------1-2-3---------------|
Gb)------------------------------|
Bb)------------------------------|
Eb)------------------------------|

Order

Intro part 1
Intro part 2
Verse
End of verse
Chorus part 1
Chorus part 2
Verse
End of verse
Both choruses x 2
Interlude
End of interlude
Both choruses x4

the interlude and the verse aren't 100% correct, But I tried.
It ends right here for this tab
And Thatís as far as I got
Comments