Adema - Blow It Away Chords & Tabs

 

Blow It Away Chords & Tabs

Adema Chords & Tabs

Version: 2 Type: Bass Tab 0 ratings
1 star 2 stars 3 stars 4 stars 5 stars
comments

Blow It Away Bass Tab

   
Band:  Adema
Song:  Blow It Away
Tabber:  Jimmy Fats 69
Tuning:  Standard 5-string (B,E,A,D,G)

It?s a pretty easy song.  Listen for the timing.

Intro (00:01)
G|---
D|---
A|---  A faint note that is barely heard at the beginning of the song
E|1--
B|---

Intro/Verse/Chorus (00:05)
G|-----------------------------------------------------------------|
D|-----------------------------------------------------------------|
A|-----------------------------------------------------------------|
E|-----------------7-7-7-7------------------------9-9-9-9----------|
B|7/9-9-9-9-9-9-9----------7-7-7-7-6-6-6-6-6-6-6----------10-10-10-|

G|--------------------------------------------------------------|
D|--------------------------------------------------------------|
A|--------------------------------------------------------------|
E|-----------------7-7-7-7--------------------------------------|
B|7/9-9-9-9-9-9-9----------7-7-7-7-6-6-6-6-6-6-6\-2-2-1-2-------|

Bridge Pt. 1 (1:45)
G|-------------------------------------------------------|
D|-------------------------------------------------------|x2
A|-------------------------------------------------------|
E|2/4-4-4-4-3-3-3----------------------------------------|
B|-----------------4-4-4-5-5-5-5--2-2-2-3-3-3-3--3--3--3-|

Bridge Pt. 2  (1:55)
G|-------------------------------------|
D|-------------------------------------|
A|-------------------------------------|x1
E|4-4----------------------------------|
B|-------------------5-5-------2-2---4-|
[ Tab from: http://www.guitartabs.cc/tabs/a/adema/blow_it_away_btab_ver_2.html ]
G|-----------------------------------------|
D|-----------------------------------------| X2
A|-----------------------------------------|
E|4-4-----4-3-------------/7-7-7-7-5-7-5-5-|
B|------------4------5-5-------------------|

G|-----------------------------|
D|-----------------------------|
A|-----------------------------|x1
E|4-4-----4-3--------------4---|
B|------------4------5--4------|

Chorus (2:15) x3
G|-----------------------------------------------------------------|
D|-----------------------------------------------------------------|
A|-----------------------------------------------------------------|
E|-----------------7-7-7-7------------------------9-9-9-9----------|
B|7/9-9-9-9-9-9-9----------7-7-7-7-6-6-6-6-6-6-6----------10-10-10-|

G|--------------------------------------------------------------|
D|--------------------------------------------------------------|
A|--------------------------------------------------------------|
E|-----------------7-7-7-7--------------------------------------|
B|7/9-9-9-9-9-9-9----------7-7-7-7-6-6-6-6-6-6-6\-2-2-1-2-------|

Outro (2:45) x1
G|------------------------------------------------------------------|
D|------------------------------------------------------------------|
A|------------------------------------------------------------------|
E|-----------------7-7-7-7------------------------9-9-9-9-----------|
B|7/9-9-9-9-9-9-9----------7-7-7-7-6-6-6-6-6-6-6----------10-10-10--|

G|----------------------------------|
D|----------------------------------|
A|----------------------------------|
E|4--4--4--4--4--3----------------4-|
B|------------------4--4--5---4-----|

Comments, Questions, Mistakes:  MADdog9997@aol.com
Comments