Adema - Blame Me Chords & Tabs

 

Blame Me Chords & Tabs

Adema Chords & Tabs

Version: 1 Type: Bass Tab 0 ratings
1 star 2 stars 3 stars 4 stars 5 stars
comments

Blame Me Bass Tab

Adema - Blame Me
Tuning: Drop D - DADG

Intro (guitar)

Verse:
G|----------------------------------------------------------------------|
D|----------------------------------------------------------------------|
A|-------------------------------------------------------5~-------------|
D|--4~---0~-------2-4~---0~-----2-3-4~---0~-----2-3-4~----------2-3-4~--|
[ Tab from: http://www.guitartabs.cc/tabs/a/adema/blame_me_btab.html ]
Chorus:
G|----------------------------------------------------------------------|
D|----------------------------------------------------------------------|
A|----------------------------------------------------------------------|
D|--4-4-4-4-7-7-7-7-7-7-7-7-7-7-7-7-2-2-2-2-5-5-5-5-5-5-5-5-5-5-5-5-----|

Bridge:
G|----------------------------------------------------------------------|
D|----------------------------------------------------------------------|
A|--------2-2-2-2-2-2-2-2-2-2-2-2-2-------2-2-2-2-2-2-2-2-2-2-2-2-2-----|
D|--4-4-4---------------------------2-2-2-------------------------------|
Comments