Adema - Betrayed Me Chords & Tabs

 

Betrayed Me Chords & Tabs

Adema Chords & Tabs

Version: 2 Type: Bass Tab

Betrayed Me Bass Tab

   
Bass does NOTHING at verses

Pre-Chorus

G|----|
D|----|
A|6666| x 4 times (total 16)
E|----|


G|----|
D|----|
A|4444| x 4 times (total 16)
E|----| 


G|----|
D|----|
A|----| x 4 times (total 16)
E|6666|


G|----|
D|----|
A|----| x 4 times (total 16)
E|7777|

Chorus


G|---------------|
D|---------------|
A|---------------| (total 8)
E|6-6-6-6-6-6-6-6| 


G|---------------|
D|---------------|
A|---------------| (total 8)
E|4-4-4-4-4-4-4-4|


G|---------------|
D|---------------|
A|---------------| (total 8)
E|1-1-1-1-1-1-1-1|


G|---------------|
D|---------------|
A|---------------| (total 8)
E|2-2-2-2-2-2-2-2|


G|---------------|
D|---------------|
A|---------------| (total 8)
E|6-6-6-6-6-6-6-6|


G|---------------|
D|---------------|
A|---------------| (total 8)
E|8-8-8-8-8-8-8-8|


G|---------------|
D|---------------|
A|---------------| (total 8)
E|1-1-1-1-1-1-1-1|

[ Tab from: http://www.guitartabs.cc/tabs/a/adema/betrayed_me_btab_ver_2.html ]
G|---------------|
D|---------------|
A|---------------| (total 8)
E|2-2-2-2-2-2-2-2|

Solo

G|----------------|
D|----------------|
A|1133331133331133|
E|----------------|


G|----------------|
D|--1111--1111--11|
A|33----33----33--|
E|----------------|


G|----------------|
D|--3333--3333--33|
A|44----44----44--|
E|----------------|


G|----------------|
D|--4444--4444--44|
A|66----66----66--|
E|----------------|

G|----------------|
D|----------------|
A|1133331133331133|
E|----------------|


G|----------------|
D|--1111--1111--11|
A|33----33----33--|
E|----------------|


G|----------------|
D|--3333--3333--33|
A|44----44----44--|
E|----------------|

Interlude

G|-------------|
D|1111-1111-1-6|
A|-------------|
E|-------------|

Outro


G|---------------|
D|---------------|
A|---------------| x 2
E|6666-6696669666|


G|-----------|
D|-----------|
A|-----------|
E|6666-6666--|

Song Order: 

Verse
Pre-Chorus
Chorus
Verse
Pre-Chorus
Chorus
Solo
Interlude
Chorus
Pre-Chorus
Pre-Chorus
Outro