Adele - Someone Like You Chords & Tabs

 

Adele Chords & Tabs

Version: 11 Type: Tab 0 ratings
1 star 2 stars 3 stars 4 stars 5 stars
comments

Someone Like You Tab

   
-------------------------------------------------------------------------------
			     Someone Like You - Adele
-------------------------------------------------------------------------------

Tabbed by: LennonsDisciple - 17/11/11
Email: nhanngo123@gmail.com

Tuning: Standard (Capo on 2nd Fret)

This is the piano part on GUITAR.
Almost Note 4 Note. If you like to play the base notes, add it into your playing style.



(Capo on 2nd Fret)

[INTRO]:
|--------------------------|--------------------------|
|--------3-----------3-----|--------3-----------3-----|
|-----4-----4-----4-----4--|-----4-----4-----4-----4--|
|--5-----------5-----------|--5-----------5-----------|
|--------------------------|--------------------------|
|--------------------------|--------------------------|




--------------------------|--------------------------|
--------3-----------3-----|--------3-----------3-----|
-----4-----4-----4-----4--|-----4-----4-----4-----4--|
--4-----------4-----------|--4-----------4-----------|
--------------------------|--------------------------|
--------------------------|--------------------------|



--------------------------|--------------------------|
--------5-----------5-----|--------5-----------5-----|
-----4-----4-----4-----4--|-----4-----4-----4-----4--|
--------------2-----------|--------------2-----------|
--------------------------|--------------------------|
--0-----------------------|--0-----------------------|



--------------------------|--------------------------|
--------5-----------5-----|--------5-----------5-----|
-----5-----5-----5-----5--|-----5-----5-----5-----5--|
--5-----------5-----------|--5-----------5-----------|
--------------------------|--------------------------|
--------------------------|--------------------------|



[Verse 1] (Slightly different to [INTRO])
I heard                            that you're
--------------------------|--------------------------|
--------3-----------3-----|--------3-----------3-----|
-----4-----4-----4-----4--|-----4-----4-----4-----4--|
--5-----------5-----------|--5-----------5-----------|
--------------------------|--------------------------|
--------------------------|--------------------------|


        settled down               That you
--------------------------|--------------------------|
--------3-----------3-----|--------3-----------3-----|
-----4-----4-----4-----4--|-----4-----4-----4-----4--|
--4-----------4-----------|--4-----------4-----------|
--------------------------|--------------------------|
--------------------------|--------------------------|


        found a girl            and  you're
--------------------------|--------------------------|
--------5-----------5-----|--------5-----------5-----|
-----4-----4-----4-----4--|-----4-----4-----4-----4--|
--------------2-----------|--------------2-----------|
--------------------------|--------------------------|
--0-----------------------|--0-----------------------|


              married         now
--------------------------|--------------------------|
--------5-----------5-----|--------5-----------5-----|
-----0-----0-----0-----0--|-----0-----0-----0-----0--|
--2-----------2-----------|--2-----------2-----------|
--------------------------|--------------------------|
--------------------------|--------------------------|


Repeat Verse 1 for
I heard that your dreams came true
Guess she gave you things I didn't give to you
Old friend, why are you so shy?
Ain't like you to hold back or hide from the light.



[Pre-Chorus 1]
I hate to turn up out   of the blue uninvited  But I
--------------------------|--------------------------|
--------3-----------3-----|--------3-----------3-----|
-----0-----0-----0-----0--|-----0-----0-----0-----0--|
--4-----------4-----------|--4-----------4-----------|
--------------------------|--------------------------|
--------------------------|--------------------------|


   couldn't stay   away,      I couldn't fight it  I
--------------------------|--------------------------|
--------1-----------1-----|--------1-----------1-----|
-----0-----0-----0-----0--|-----0-----0-----0-----0--|
--2-----------2-----------|--2-----------2-----------|
--------------------------|--------------------------|
--------------------------|--------------------------|


  had hoped you'd see my face  that you'd be reminded
--------------------------|--------------------------|
--------3-----------3-----|--------3-----------3-----|
-----0-----0-----0-----0--|-----0-----0-----0-----0--|
--4-----------4-----------|--4-----------4-----------|
--------------------------|--------------------------|
--------------------------|--------------------------|


 That for me                    it isn't over
--------------------------|--------------------------|
--------5-----------5-----|--------3-----------3-----|
-----0-----0-----0-----0--|-----0-----0-----0-----0--|
--4-----------4-----------|--4-----------4-----------|
--------------------------|--------------------------|
--------------------------|--------------------------|


--------------------------|
--------5-----------5-----|
-----0-----0-----0-----0--| softly played & ready for Chorus 1
--4-----------4-----------|
--------------------------|
--------------------------|


 [Chorus 1]
  G
  Never      mind
|--------3-----------3-----|
|-----3-----3-----3-----3--|
|--------------0-----------|
|--------------------------|
|--------------------------|
|--3-----------------------|


  D
          I'll         find   Em       someone like
--------2-----------2-----|--------3-----------3-----|
-----3-----3-----3-----3--|-----0-----0-----0-----0--|
--------------2-----------|--------------0-----------|
--0-----------------------|--------------------------|
--------------------------|--------------------------|
--------------------------|--0-----------------------|


   C
              you            G
--------3-----------3-----|--------3-----------3-----|
-----1-----1-----1-----1--|-----3-----3-----3-----3--|
--------------0-----------|--------------0-----------|
--------------------------|--------------------------|
--3-----------------------|--------------------------|
--------------------------|--3-----------------------|


  D                          Em
--------2-----------2-----|--------3-----------3-----|
-----3-----3-----3-----3--|-----0-----0-----0-----0--|
--------------2-----------|--------------0-----------|
--0-----------------------|--------------------------|
--------------------------|--------------------------|
--------------------------|--0-----------------------|


   C                         G
--------3-----------3-----|--------3-----------3-----|
-----1-----1-----1-----1--|-----3-----3-----3-----3--|
--------------0-----------|--------------0-----------|
--------------------------|--------------------------|
--3-----------------------|--------------------------|
--------------------------|--3-----------------------|


  D                          Em
--------2-----------2-----|--------3-----------3-----|
-----3-----3-----3-----3--|-----0-----0-----0-----0--|
--------------2-----------|--------------0-----------|
--0-----------------------|--------------------------|
--------------------------|--------------------------|
--------------------------|--0-----------------------|


  C                          G        it lasts in love
--------3-----------3-----|--------3-----------3-----|
-----1-----1-----1-----1--|-----3-----3-----3-----3--|
--------------0-----------|--------------0-----------|
--------------------------|--------------------------|
--3-----------------------|--------------------------|
--------------------------|--3-----------------------|

[ Tab from: http://www.guitartabs.cc/tabs/a/adele/someone_like_you_tab_ver_11.html ]
  D  but sometimes           Em              it hurts
--------2-----------2-----|--------3-----------3-----|
-----3-----3-----3-----3--|-----0-----0-----0-----0--|
--------------2-----------|--------------0-----------|
--0-----------------------|--------------------------|
--------------------------|--------------------------|
--------------------------|--0-----------------------|


  C         instead
--------3-----------3-----|
-----1-----1-----1-----1--|
--------------0-----------|
--------------------------|
--3-----------------------|
--------------------------|


the 2nd repeated
"Sometimes it lasts in love but sometimes it hurts instead"
is played like this

 G
... lasts   in    love
--------------------------|
--------3-----------3-----|
-----4-----4-----4-----4--|
--5-----------5-----------|
--------------------------|
--------------------------|

D   but   sometime it hurts       instead
--------------------------|--------------------------|
--------3-----------3-----|--------5-----------5-----|
-----2-----2-----2-----2--|-----4-----4-----4-----4--|
--4-----------4-----------|--2-----------2-----------|
--------------------------|--------------------------|
--------------------------|--------------------------|


    eh...........
--------------------------|--------------------------|
--------5-----------5-----|--------5-----------5-----|
-----5-----5-----5-----5--|-----5-----5-----5-----5--|
--5-----------5-----------|--5-----------5-----------|
--------------------------|--------------------------|
--------------------------|--------------------------|


Same as [Verse 1]
"You know how the time flies
Only yesterday it was the time of our lives
We were born and raised
In a summer haze
Bound by the surprise of our glory days"


[Pre-Chorus 2](Slightly different to [Pre-Chorus 1]

I hate to turn up out...........
--------------------------|--------------------------|
--------3-----------3-----|--------3-----------3-----|
-----0-----0-----0-----0--|-----0-----0-----0-----0--|
--4-----------4-----------|--4-----------4-----------|
--------------------------|--------------------------|
--------------------------|--------------------------|


  couldn't stay away ..........
--------------------------|--------------------------|
--------1-----------1-----|--------1-----------1-----|
-----0-----0-----0-----0--|-----0-----0-----0-----0--|
--2-----------2-----------|--2-----------2-----------|
--------------------------|--------------------------|
--------------------------|--------------------------|


  Hope to see my ........
--------------------------|--------------------------|
--------3-----------3-----|--------3-----------3-----|
-----0-----0-----0-----0--|-----0-----0-----0-----0--|
--4-----------4-----------|--4-----------4-----------|
--------------------------|--------------------------|
--------------------------|--------------------------|


   me....                   isn't over....
--------------------------|--------------------------|
--------1-----------1-----|--------3-----------3-----|
-----0-----0-----0-----0--|-----0-----0-----0-----0--|
--2-----------2-----------|--4-----------4-----------|
--------------------------|--------------------------|
--------------------------|--------------------------|



--------------------------|--------------------------|
--------5-----------5-----|--------7-----------7-----|
-----0-----0-----0-----0--|-----0-----0-----0-----0--|
--4-----------4-----------|--------------------------|
--------------------------|--7-----------7-----------|
--------------------------|--------------------------|


then play [Chorus 1]


[Bridge]
  D
 Nothing compares           No worries or cares
--------------------------|--------------------------|
--------3-----------3-----|--------3-----------3-----|
-----2-----2-----2-----2--|-----2-----2-----2-----2--|
--0-----------0-----------|--0-----------0-----------|
--------------------------|--------------------------|
--------------------------|--------------------------|


 Bsus4
  Regrets and mistakes        They are memories made
--------------------------|--------------------------|
--------5-----------5-----|--------5-----------5-----|
-----4-----4-----4-----4--|-----4-----4-----4-----4--|
--4-----------4-----------|--4-----------4-----------|
--------------------------|--------------------------|
--------------------------|--------------------------|


 Cm
  Who    would   have  known how       bitter
--------3-----------3-----|--------3-----------3-----|
--------------------------|--------------------------|
-----5-----5-----5-----5--|-----5-----5-----5-----5--|
--5-----------5-----------|--5-----------5-----------|
--------------------------|--------------------------|
--------------------------|--------------------------|


   sweet  ...                 this         would
--------5-----------5-----|--------3-----------3-----|
--------------------------|-----3-----3-----3-----3--|
-----7-----7-----7-----7--|--2-----------2-----------|
--7-----------7-----------|--------------------------|
--------------------------|--------------------------|
--------------------------|--------------------------|


  taste.............................................
--------3-----------3-----|--------5-----------5-----|--3--------2--------|
-----5-----5-----5-----5--|-----7-----7-----7-----7--|--3--------3--------|
--5-----------5-----------|--7-----------7-----------|--0--------2--------|
--------------------------|--------------------------|--0--------0--------|
--------------------------|--------------------------|--2-----------------|
--------------------------|--------------------------|--3-----------------|


Strum
  G      D     Em   C
--3------2-----0----0----|
--3------3-----0----1----|
--0------2-----0----0----|    then play [Chorus 1]
--0------0-----2----2----|
--2------------2----3----|
--3------------0---------|



[Ending] (Slightly different to the rest)

 Sometimes it lasts in love  but sometimes it hurts
|--------------------------|--------------------------|
|--------3-----------3-----|--------3-----------3-----|
|-----4-----4-----4-----4--|-----2-----2-----2-----2--|
|--5-----------5-----------|--4-----------4-----------|
|--------------------------|--------------------------|
|--------------------------|--------------------------|


  instead   ........           yeah....
--------------------------|--------------------------|
--------0-----------0-----|--------1-----------1-----|
-----0-----0-----0-----0--|-----0-----0-----0-----0--|
--2-----------2-----------|--2-----------2-----------|
--------------------------|--------------------------|
--------------------------|--------------------------|


 Sometimes it lasts in love  but sometimes it hurts
--------------------------|--------------------------|
--------------------------|--------------------------|
--------4-----------4-----|--------2-----------2-----|
-----5-----5-----5-----5--|-----4-----4-----4-----4--|
--5-----------5-----------|--3-----------3-----------|
--------------------------|--------------------------|


  instead   ........           yeah....
--------------------------|--------------------------|
--------0-----------0-----|--------------------------|
-----0-----0-----0-----0--|--------0-----------0-----|
--2-----------2-----------|-----2-----2-----2-----0--|
--------------------------|--3-----------3-----------|
--------------------------|--------------------------|



--------------------------|--------------------------|--------------------|
--------------------------|-----0--------0--------0--|--------------------|
-----0-----0-----2-----2--|--------0--------0--------|--0--------0--------|
--2-----2-----4-----4-----|--5--------5--------5-----|-----------0--------|
--------------------------|--------------------------|-----------2--------|
--------------------------|--------------------------|-----------3--------|
Comments