Adele - Rolling In The Deep Chords & Tabs

 

Adele Chords & Tabs

Version: 2 Type: Bass Tab 0 ratings
1 star 2 stars 3 stars 4 stars 5 stars
comments

Rolling In The Deep Bass Tab

   
it isn't totaly correct, but you can play it like this. if you want to correct 
than you can mail me: wessellangedijk@hotmail.com


pre-chorus(start at 0:40)
G|----------------------------------------------------------------| 2X
D|----------------------------------------------------------------|
A|----------------1-1-1-1-1-1-1-1-------------------------1-1-1-1-|
E|4-4-4-4-4-4-4-4-----------------3-3-3-3-3-3-3-3-4-4-4-4---------|

chorus (0:58)

G|-----------------------------------------------------------------| 2X 
D|-----------------------------------------------------------------|
A|-3-3-3-3-3-3-3-3-1-1-1-1-1-1-1-1-----------------1-1-1-1-2-2-2-2-|
E|---------------------------------4-4-4-4-4-4-4-4-----------------|

verse (1:18)

G|----------------------------------------------------------------| 2x
D|----------------------------------------------------------------|
A|3-3-3-3-3-3-3-3-1-1-1-1-1-1-1-1-----------------1-1-1-1-1-1-1-1-|
E|--------------------------------4-4-4-4-4-4-4-4-----------------|

pre-chorus (1:36)

G|----------------------------------------------------------------| 2X
D|----------------------------------------------------------------|
A|----------------1-1-1-1-1-1-1-1-------------------------1-1-1-1-|
E|4-4-4-4-4-4-4-4-----------------3-3-3-3-3-3-3-3-4-4-4-4---------|

chorus (1:52)
[ Tab from: http://www.guitartabs.cc/tabs/a/adele/rolling_in_the_deep_btab_ver_2.html ]
G|-----------------------------------------------------------------|3X 
D|-----------------------------------------------------------------|
A|-3-3-3-3-3-3-3-3-1-1-1-1-1-1-1-1-----------------1-1-1-1-2-2-2-2-|
E|---------------------------------4-4-4-4-4-4-4-4-----------------|

than at 2:22  (it's still chorus)

G|------------------------------------------------------------------|
D|------------------------------------------------------------------|
A|-3-3-3-3-3-3-3-3-1-1-1-1-1-1-1-1-----------------1-1-1-1-22222222-|
E|---------------------------------4-4-4-4-4-4-4-4------------------|

than wait while the bassdrum is playing
than:

bridge (2:40)

G|-----------------------------------------------------------------| 1X
D|-----------------------------------------------------------------|
A|-x-3-x-3-x-3-x-3-x-3-x-3-x-3-x-3-x-3-x-3-x-3-x-3-x-3-x-3-x-3-x-3-|
E|-----------------------------------------------------------------|

G|------------------------------------------------------------------| 2X
D|------------------------------------------------------------------|
A|-3~--------------1~------------------------------1~------2~-------|
E|-----------------------------------4~-----------------------------|

Chorus (3:06) 

G|-----------------------------------------------------------------| 4X
D|-----------------------------------------------------------------|
A|-3-3-3-3-3-3-3-3-1-1-1-1-1-1-1-1-----------------1-1-1-1-2-2-2-2-|
E|---------------------------------4-4-4-4-4-4-4-4-----------------|

End,,

Comments