Adele - Dont You Remember Chords & Tabs

 

Dont You Remember Chords & Tabs

Adele Chords & Tabs

Version: 3 Type: Tab 0 ratings
1 star 2 stars 3 stars 4 stars 5 stars
comments

Dont You Remember Tab

   
Adele - Don't You Remember

Capo 1st

Intro:

E---3--3---2------------------------3---3---2----------------------3-----------|
B---3--3-----------3----------------3---3-----------3--------------3-----------|
G----4---4-----2-------2-------2--------0-------2-------2------2---2/3--2/3----|
D----------0---------------0-------0/2------0---------------0------------------|
A------------------------------------------------------------------------------|
E------------------------------------------------------------------------------|

E---2-----------------2/3-2-----|
B-----------3----------------3--|
G-------2-------2---------------|
D---0-----------------0---------|
A-------------------------------|
E-------------------------------|
[ Tab from: http://www.guitartabs.cc/tabs/a/adele/dont_you_remember_tab_ver_3.html ]
Verse 2x:
E!---------------------------------3-----------3-----------------------2------|
B!---------3--------------------3-----3-----3-----3--------2-----------3------|
G!------2-----2-----2--------0-----------0-----------------4--------2-----2---|
D!---0-----------0-----2--4-----------------------------4-----4--0------------|
A!---------------------------------------------------2------------------------|
E!----------------------------------------------------------------------------|
       When will I see you again........

E---------3-----------3--!
B---------3-----------3--!
G------0-----0-----0-----!
D------------------------!
A------------------------!
E---3-----------3--------!

E---------------------------------------------------------------------------0----|
B---------2-----------2-----------2-----------2-----------2-----------2-----2----|
G---------2-----------2-----------4-----------3-----------3-----------2-----2----|
D------2-----2-----2-----2-----4-----4-----4-----4-----4-----4-----2----2--2-----|
A---0-----------0-----------2------------------------------------0----------0----|
E---------------------------------------2-----------2----------------------------|
    I know I have a fickle heart,.......

[Chorus]
                      D                A     G
But don't you remember
                     bm          A     D
Don't you remember
                        D                 A      G
The reason you left me before
                   bm           A               D
Baby, please remember me once more
Comments