Adelayda - Not Tonight Chords & Tabs

 

Not Tonight Chords & Tabs

Adelayda Chords & Tabs

Version: 1 Type: Tab 0 ratings
1 star 2 stars 3 stars 4 stars 5 stars
comments

Not Tonight Tab

www.adelayda.com

adelayda-not tonight

I heard these guys in Auburn and they were awesome. 

CAPO FIRST FRET
Verse 1  
Gtr. 1 Clean/Acoustic
|-7--7--7--7-7/-3-3--|-5--5-5--5-5--------|
|-7--7--7--7-7/-3-3--|-5--5-5--5-5--------|
|-7--7--7--7-7/-4-4--|-6--6-6--6-6--------|
|-9--9--9--9-9/-5-5--|-7--7-7--7-7--------|
|-9--9--9--9-9/-5-5--|-7--7-7--7-7--------|
|-7--7--7--7-7/-3-3--|-5--5-5--5-5--------|
|Do you...           |All the...          |
|                    |                    |
|Gtr. 2 Quiet        |                    |
|--------------------|--------------------|
|--------------------|--------------------|
|--------------------|--------------------|
|--------------------|--------------------|
|--------------------|--------------------|
|--------------------|--------------------|


Gtr. 1 Clean/Acoustic
|-7--7--7--7-7/-3-3--|-5--5-5--5-5--------|
|-7--7--7--7-7/-3-3--|-5--5-5--5-5--------|
|-7--7--7--7-7/-4-4--|-6--6-6--6-6--------|
|-9--9--9--9-9/-5-5--|-7--7-7--7-7--------|
|-9--9--9--9-9/-5-5--|-7--7-7--7-7--------|
|-7--7--7--7-7/-3-3--|-5--5-5--5-5--------|
|You made...         |But they're...      |
|                    |                    |
|Gtr. 2 Quiet        |                    |
|--------------------|--------------------|
|--------------------|--------------------|
|--------------------|--------------------|
|--------------------|--------------------|
|--------------------|--------------------|
|--------------------|--------------------|


Gtr. 1 Clean/Acoustic
|-0--0--0-00---------|--3-----------------|
|-0--0--0-00---------|--3-----------------|
|-1--1--1-11---------|--4-----------------|
|-2--2--2-22---------|--5-----------------|
|-2--2--2-22---------|--5-----------------|
|-0--0--0-00---------|--3-----------------|
|And you swear...    |     To Hold...     |Baby not tonight.
|                    |                    |
|Gtr. 2 Quiet        |                    |
|--------------------|--------------------|
|--------------------|--------------------|
|--------------------|--------------------|
|--------------------|--------------------|
|--------------------|--------------------|
|--------------------|--------------------|

Fill 1
Gtr. 1 Clean
|-0-0--0--0-0--/0----|
|-3-3--3--0-0--/0----|
|-4-4--4--4-4--/6----|
|-4-4--4--5-5--/7----|
|-2-2--2--5-5--/7----|
|---------3-3--/5----|
|                    |
|Gtr. 2 Distorted    |
|--------------------|
|--------------------|
|----------------9-11|
|9-9h11/12-11-9-7~---|
|--------------------|
|--------------------|


Verse 2
Gtr. 1 Clean
|-7--7--7--7-7/-3-3--|-5--5-5--5-5--------|
|-7--7--7--7-7/-3-3--|-5--5-5--5-5--------|
|-7--7--7--7-7/-4-4--|-6--6-6--6-6--------|
|-9--9--9--9-9/-5-5--|-7--7-7--7-7--------|
|-9--9--9--9-9/-5-5--|-7--7-7--7-7--------|
|-7--7--7--7-7/-3-3--|-5--5-5--5-5--------|
| I've tried...      | but I...           |
|                    |                    |
|Gtr. 2 Lt Flange    |                    |
|--------------------|--------------------|
|--------------------|--------------------|
|9h11---7------------|-9-9-9-9---9/11-----|
|----------7--9------|--------------------|
|--------------------|--------------------|
|--------------------|--------------------|



Gtr. 1 Clean/Acoustic
|-7--7--7--7-7/-3-3--|-5--5-5--5-5--------|
|-7--7--7--7-7/-3-3--|-5--5-5--5-5--------|
|-7--7--7--7-7/-4-4--|-6--6-6--6-6--------|
|-9--9--9--9-9/-5-5--|-7--7-7--7-7--------|
|-9--9--9--9-9/-5-5--|-7--7-7--7-7--------|
|-7--7--7--7-7/-3-3--|-5--5-5--5-5--------|
| I've tried...      | but that's...      |
|                    |                    |
|Gtr. 2  Lt Flange   |                    |
|--------------------|--------------------|
|--------------------|--------------------|
|9h11---7------------|-9-9-9-9---9--------|
|----------7--9------|--------------------|
|--------------------|--------------------|
|--------------------|--------------------|



Gtr. 1 Clean
|-0--0--0-00---------|--3-----3-----------|
|-0--0--0-00---------|--3-----3-----------|
|-1--1--1-11---------|--4-----4-----------|
|-2--2--2-22---------|--5-----5-----------|
|-2--2--2-22---------|--5-----5-----------|
|-0--0--0-00---------|--3-----3-----------|
|And you're si...    |If you...      Baby |not tonight
|		     |                    |
|Gtr. 2 Lt Flange    |                    |
|--------------------|--------------------|
|--------------------|--------------------|
|--------------------|-----------4~-------|
|-2--2--2-22---------|--------5-----------|
|-2--2--2-22---------|-----5--------------|
|-0--0--0-00---------|--3-----------------|
 .....pm.....


Fill 2
Gtr. 1 Clean
|-0-0--0--0-0--/0----|
|-3-3--3--0-0--/0----|
|-4-4--4--4-4--/6----|
|-4-4--4--5-5--/7----|
|-2-2--2--5-5--/7----|
|---------3-3--/5----|
|                    |
|Gtr. 2 Distorted    |
|--------------------|
|--------------------|
|--------------------|
|9-9h11/12-11-9-7h9-7|
|--------------------|
|--------------------|



Chorus 1
Gtr. 1 Distorted
|--------------------|--------------------|
|--------------------|--------------------|
|-4--4--4x4-4/7--7--7|--------------------|
|-4--4--4x4-4/7--7--7|-5--5--5x5-5/7--7--7|
|-2--2--2x2-2/5--5--5|-5--5--5x5-5/7--7--7|
|--------------------|-3--3--3x3-3/5--5--5|
| Take a...          | become.            |
|                    |                    |
|Gtr. 2 Distorted    |                    |
|--------------------|--------------------|
|--------------------|--------------------|
|-4--4--4x4-4/7--7--7|--------------------|
|-4--4--4x4-4/7--7--7|-5--5--5x5-5/7--7--7|
|-2--2--2x2-2/5--5--5|-5--5--5x5-5/7--7--7|
|--------------------|-3--3--3x3-3/5--5--5|


Gtr. 1 Distorted
|--------------------|--------------------|
|--------------------|--------------------|
|-4--4--4x4-4/7--7--7|--------------------|
|-4--4--4x4-4/7--7--7|-5--5--5x5-5/7--7--7|
|-2--2--2x2-2/5--5--5|-5--5--5x5-5/7--7--7|
|--------------------|-3--3--3x3-3/5--5--5|
|A tragedy...        |love,               |
|                    |                    |
|Gtr. 2 Distorted    |                    |
|--------------------|--------------------|
|--------------------|--------------------|
|-4--4--4x4-4/7--7--7|--------------------|
|-4--4--4x4-4/7--7--7|-5--5--5x5-5/7--7--7|
|-2--2--2x2-2/5--5--5|-5--5--5x5-5/7--7--7|
|--------------------|-3--3--3x3-3/5--5--5|




Gtr. 1 Distorted
|--------------------|--------------------|
|--------------------|--------------------|
|--------------------|--------------------|
|-2--2--2-2-x-2-x-2-2|-5--5--5-5-x-5-x-5-5|
|-2--2--2-2-x-2-x-2-2|-5--5--5-5-x-5-x-5-5|
|-0--0--0-0-x-0-x-0-0|-3--3--3-3-x-3-x-3-3|
| That we...         | I know...          |
|                    |                    |
|Gtr. 2 Distorted    |                    |
|--------------------|--------------------|
|--------------------|--------------------|
|--------------------|--------------------|
|-2------------------|-5------------------|
|-2------------------|-5------------------|
|-0------------------|-3------------------|



|--------------------|--------------------|
|--------------------|--------------------|
|--------------------|--------------------|
|-2--2--2-2-x-2-x-2-2|-5--5--5-5-x-5-x-5-5|
|-2--2--2-2-x-2-x-2-2|-5--5--5-5-x-5-x-5-5|
|-0--0--0-0-x-0-x-0-0|-3--3--3-3-x-3-x-3-3|
| It's the...        |        So Goodnight|
|                    |                    |
|                    |                    |
|--------------------|--------------------|
|--------------------|--------------------|
|--------------------|--------------------|
|\2------------------|-5------------------|
|\2------------------|-5------------------|
|\0------------------|-3------------------|



Fill 3
Gtr. 1 Distorted
|--------------------|--------------------|
|--------------------|--------------------|
|-4-4--4-------------|-4-4--4-------------|
|-4-4--4--5-5--/7----|-4-4--4--5-5--/7----|
|-2-2--2--5-5--/7----|-2-2--2--5-5--/7----|
|---------3-3--/5----|---------3-3--/5----|
|                    |Goodnight,  aahah.  |
|                    |                    |
|Gtr. 2 Distorted    |                    |
|--------------------|--------------------|
|--------------------|--------------------|
|--------------------|--------------------|
|-9-9h11/12-11-9-7~~-|-9-9h11/12-11-9-7~~-|
|--------------------|--------------------|
|--------------------|--------------------|


Verse 3
Gtr. 1 Clean/Acoustic
|-7--7--7--7-7/-3-3--|-5--5-5--5-5--------|
|-7--7--7--7-7/-3-3--|-5--5-5--5-5--------|
|-7--7--7--7-7/-4-4--|-6--6-6--6-6--------|
|-9--9--9--9-9/-5-5--|-7--7-7--7-7--------|
|-9--9--9--9-9/-5-5--|-7--7-7--7-7--------|
|-7--7--7--7-7/-3-3--|-5--5-5--5-5--------|
|This is...          | more than...       |
|                    |                    |
|Gtr. 2 Lt Flange    |                    |
|--------------------|--------------------|
|12------------------|--------------------|
|--11~~-------7-7-7h9|--9--9--9--9--9h11~~|
|--------------------|--------------------|
|--------------------|--------------------|
|--------------------|--------------------|


Gtr. 1 Clean/Acoustic
|-7--7--7--7-7/-3-3--|-5--5-5--5-5--------|
|-7--7--7--7-7/-3-3--|-5--5-5--5-5--------|
|-7--7--7--7-7/-4-4--|-6--6-6--6-6--------|
|-9--9--9--9-9/-5-5--|-7--7-7--7-7--------|
|-9--9--9--9-9/-5-5--|-7--7-7--7-7--------|
|-7--7--7--7-7/-3-3--|-5--5-5--5-5--------|
|Sad old...          |slowly...           |
|                    |                    |
|Gtr. 2  Lt Flange   |                    |
|--------------------|--------------------|
|--------------------|--------------------|
|~~~~~~~--------11---|-7--7--7--7h9-------|
|--------------------|--------------------|
|--------------------|--------------------|
|--------------------|--------------------|


Gtr. 1  Clean/Acoustic
|-0--0--0-00---------|--3-----3-----------|
|-0--0--0-00---------|--3-----3-----------|
|-1--1--1-11---------|--4-----4-----------|
|-2--2--2-22---------|--5-----5-----------|
|-2--2--2-22---------|--5-----5-----------|
|-0--0--0-00---------|--3-----3-----------|
|Tell and ask...     |"Can..."       Baby |not tonight
|                    |                    |
|Gtr. 2 Lt Flange    |                    |
|--------------------|--------------------|
|--------------------|------------3~------|
|--------1--2--1-----|---------4----------|
|-----2----------2---|------5-------------|
|--2----------------2|---5----------------|
|0-------------------|3-------------------|


Fill 4
Gtr. 1 Clean
|-0-0--0--0-0--/0----|
|-3-3--3--0-0--/0----|
|-4-4--4--4-4--/6----|
|-4-4--4--5-5--/7----|
|-2-2--2--5-5--/7----|
|---------3-3--/5----|
|                    |
|Gtr. 2 Distorted    |
|--------------------|
|--------------------|
|--------------------|
|9-9h11/12-11-9-7h9-7|
|--------------------|
|--------------------|


Chorus 2
Gtr. 1 Distorted
|--------------------|--------------------|--------------------|--------------------|
|--------------------|--------------------|--------------------|--------------------|
|-4--4--4x4-4/7--7--7|--------------------|-4--4--4x4-4/7--7--7|--------------------|
|-4--4--4x4-4/7--7--7|-5--5--5x5-5/7--7--7|-4--4--4x4-4/7--7--7|-5--5--5x5-5/7--7--7|
|-2--2--2x2-2/5--5--5|-5--5--5x5-5/7--7--7|-2--2--2x2-2/5--5--5|-5--5--5x5-5/7--7--7|
|--------------------|-3--3--3x3-3/5--5--5|--------------------|-3--3--3x3-3/5--5--5|
| Take a...          | become.            |A tragedy...        |love,               |
|                    |                    |                    |                    |
|Gtr. 2 Distorted    |                    |                    |                    |
|--------------------|--------------------|--------------------|--------------------|
|--------------------|--------------------|--------------------|--------------------|
|-4--4--4x4-4/7--7--7|--------------------|-4--4--4x4-4/7--7--7|--------------------|
|-4--4--4x4-4/7--7--7|-5--5--5x5-5/7--7--7|-4--4--4x4-4/7--7--7|-5--5--5x5-5/7--7--7|
|-2--2--2x2-2/5--5--5|-5--5--5x5-5/7--7--7|-2--2--2x2-2/5--5--5|-5--5--5x5-5/7--7--7|
|--------------------|-3--3--3x3-3/5--5--5|--------------------|-3--3--3x3-3/5--5--5|


Gtr. 1 Distorted
|--------------------|--------------------|--------------------|--------------------|
|--------------------|--------------------|--------------------|--------------------|
|--------------------|--------------------|--------------------|--------------------|
|-2--2--2-2-x-2-x-2-2|-5--5--5-5-x-5-x-5-5|-2--2--2-2-x-2-x-2-2|-5--5--5-5-x-5-x-5-5|
|-2--2--2-2-x-2-x-2-2|-5--5--5-5-x-5-x-5-5|-2--2--2-2-x-2-x-2-2|-5--5--5-5-x-5-x-5-5|
|-0--0--0-0-x-0-x-0-0|-3--3--3-3-x-3-x-3-3|-0--0--0-0-x-0-x-0-0|-3--3--3-3-x-3-x-3-3|
| That we...         | I know...          | It's the...        |        So Goodnight|
|                    |                    |                    |                    |
|Gtr. 2 Distorted    |                    |                    |                    |
|--------------------|--------------------|--------------------|--------------------|
|--------------------|--------------------|--------------------|--------------------|
|--------------------|--------------------|--------------------|--------------------|
|-2------------------|-5------------------|\2------------------|-5------------------|
|-2------------------|-5------------------|\2------------------|-5------------------|
|-0------------------|-3------------------|\0------------------|-3------------------|
                                      
[ Tab from: http://www.guitartabs.cc/tabs/a/adelayda/not_tonight_tab.html ]
Fill 5/Presolo
Gtr. 1 Distorted
|--------------------|--------------------|
|--------------------|--------------------|
|-4-4--4-------------|-4-4--4-------------|
|-4-4--4--5-5--/7----|-4-4--4--5-5--/7----|
|-2-2--2--5-5--/7----|-2-2--2--5-5--/7----|
|---------3-3--/5----|---------3-3--/5----|
| So Goodnight       | Goodnight, yeah    |
|                    |                    |
|Gtr. 2 Distorted    |                    |
|--------------------|--------------------|
|--------------------|--------------------|
|--------------------|--------------------|
|-9-9h11/12-11-9-7~~-|-9-9h11/12-11-9-7~~-|
|--------------------|--------------------|
|--------------------|--------------------|


Solo

Gtr. 1 Distorted  (Same as chorus)
|-----------------------|-----------------------|
|-----------------------|-----------------------|
|-4---4---4x4-4/7--7--7-|-----------------------|
|-4---4---4x4-4/7--7--7-|-5---5---5x5-5/7--7--7-|
|-2---2---2x2-2/5--5--5-|-5---5---5x5-5/7--7--7-|
|-----------------------|-3---3---3x3-3/5--5--5-|
|                       |                       |
|Gtr. 2 Distorted       |                       |
|-----------------------|-----------------------|
|-----------------------|-----------------------|
|-----------------------|-----------------------|
|9-11^12-9-11^12-9h10p9-|-----------------------|
|-----------------------|-10-10-10-10h12-12~~~--|
|-----------------------|-----------------------|


|-----------------------|-----------------------|
|-----------------------|-----------------------|
|-4---4---4x4-4/7--7--7-|-----------------------|
|-4---4---4x4-4/7--7--7-|-5---5---5x5-5/7--7--7-|
|-2---2---2x2-2/5--5--5-|-5---5---5x5-5/7--7--7-|
|-----------------------|-3---3---3x3-3/5--5--5-|
|                       |                       |
|                       |                       |
|-----------------------|-----------------------|
|-----------------------|-----------------------|
|-----------------------|-----------------------|
|9-11^12-9-11^12-9h10p9-|-----------------------|
|-----------------------|-10-10-10-10h12-12~~~--|
|-----------------------|-----------------------|



|-----------------------------------------------|
|-----------------------------------------------|
|-4---------4---4x4----4/7--7------------7------|
|-4---------4---4x4----4/7--7------------7------|
|-2---------2---2x2----2/5--5------------5------|
|-----------------------------------------------|
|                                               |
|                                               |
|-----------------------------------------------|
|-----------------------------------------------|
|-----------------------------14-14-14-14-12-11-|
|--12-11--12-14~~~---12--11--12-----------------|
|-----------------------------------------------|
|-----------------------------------------------|



|-----------------------------------------------|
|-----------------------------------------------|
|-----------------------------------------------|
|-5---------5---5x5----5/7--7--7-----7----7-----|
|-5---------5---5x5----5/7--7--7-----7----7-----|
|-3---------3---3x3----3/5--5--5-----5----5-----|
|                                               |
| /~3~\                                         |
|-----------------------------------------------|
|-----------------------------------------------|
|11h12p11---------------------------------------|
|---------12--------------------12~---11-12-14~~|
|------------12~~----12--12--14-----------------|
|-----------------------------------------------|




|-----------------------------------------------|
|-----------------------------------------------|
|-4---------4---4x4----4/7--7------------7------|
|-4---------4---4x4----4/7--7------------7------|
|-2---------2---2x2----2/5--5------------5------|
|-----------------------------------------------|
|                                               |
|                                               |
|-----------------------------------------------|
|-----------------------------------------------|
|--------------14--14--14--14-------------------|
|-12~-12-11-12---12--12--12--12--------11-11-11-|
|-----------------------------------------------|
|-----------------------------------------------|



|-----------------------------------------------|
|-----------------------------------------------|
|-----------------------------------------------|
|-5---------5---5x5----5/7--7--7-----7----7-----|
|-5---------5---5x5----5/7--7--7-----7----7-----|
|-3---------3---3x3----3/5--5--5-----5----5-----|
|                                               |
|                                               |
|-----------------------------------------------|
|-----------------------------------------------|
|-----------------------------------------------|
|--------------------------------11-12p11-------|
|-14-14-14-14-12-12-12h14--12h14---------12-14~~|
|-----------------------------------------------|



|-----------------------------------------------|
|-----------------------------------------------|
|-----------------------------------------------|
|-2---------2--------2----2----2x2----2--2---4--|
|-2---------2--------2----2----2x2----2--2---4--|
|-0---------0--------0----0----0x0----0--0---2--|
|                                               |
|                                               |
|-----------------------------------------------|
|-----------------------------------------------|
|-----------------------------------------------|
|-------------------------12--------------------|
|-14~~~-------9/14/16-----------16-----14-------|
|-----------------------------------------------|


|-----------------------------------------------|
|-----------------------------------------------|
|-----------------------------------------------|
|---5~~~----------------------------------------|
|--5~~~~---Let----------------------------------|
|-3~~~~~---Ring---------------------------------|
|                                               |
|                                               |
|-----------------------------------------------|
|-----------------------------------------------|
|-----------------------------------------------|
|-----------------------------------------------|
|12~~~~~~~~~~~~~~~~~~~~~------------------------|
|-----------------------------------------------|



Verse 4
Gtr. 1 Clean/Acoustic
|-7----------7/-3-3--|-5----------5---5---|-7----------7/-3-3--|-5----------5---5---|
|-7----------7/-3-3--|-5----------5---5---|-7----------7/-3-3--|-5----------5---5---|
|-7----------7/-4-4--|-6----------6---6---|-7----------7/-4-4--|-6----------6---6---|
|-9----------9/-5-5--|-7----------7---7---|-9----------9/-5-5--|-7----------7---7---|
|-9----------9/-5-5--|-7----------7---7---|-9----------9/-5-5--|-7----------7---7---|
|-7----------7/-3-3--|-5----------5---5---|-7----------7/-3-3--|-5----------5---5---|
|We're drivi...      | see this...        |Yours start...      | You see...         |
|                    |                    |                    |                    |
|Gtr. 2 Quiet        |                    |                    |                    |
|--------------------|--------------------|--------------------|--------------------|
|--------------------|--------------------|--------------------|--------------------|
|--------------------|--------------------|--------------------|--------------------|
|--------------------|--------------------|--------------------|--------------------|
|--------------------|--------------------|--------------------|--------------------|
|--------------------|--------------------|--------------------|--------------------|

Gtr. 1 Clean
|-----0--------------|------3-------------|-0-------------3----|-----3--------------|
|-----0--------------|------3-------------|-0-------------3--3-|-----3--3-----------|
|----1---------------|-----4--------------|-1---1---------4---4|-----3h4-4----------|
|---2----------------|----5---------------|-2----2--------5----|-----3h5------------|
|--2-----------------|---5----------------|-2-----2-------5----|-----3h5------------|
|-0------------------|--3-----------------|-0-------------3----|-----3--------------|
|You lean...         |Holding on...       |It's the...         |                    |
|                    |                    |                    |                    |
|Gtr. 2 Quiet        |                    |                    |                    |
|--------------------|--------------------|--------------------|--------------------|
|--------------------|--------------------|--------------------|--------------------|
|--------------------|--------------------|--------------------|--------------------|
|--------------------|--------------------|--------------------|--------------------|
|--------------------|--------------------|--------------------|--------------------|
|--------------------|--------------------|--------------------|--------------------|


Gtr. 1 Clean
|-0-0--0--0-0--/0----|-0-0--0--0-0--/0----|--------------------|--------------------|
|-3-3--3--0-0--/0----|-3-3--3--0-0--/0----|--------------------|--------------------|
|-4-4--4--4-4--/6----|-4-4--4--4-4--/6----|-4-4--4--4-4--/6----|-4-4--4--4-4--/6----|
|-4-4--4--5-5--/7----|-4-4--4--5-5--/7----|-4-4--4--5-5--/7----|-4-4--4--5-5--/7----|
|-2-2--2--5-5--/7----|-2-2--2--5-5--/7----|-2-2--2--5-5--/7----|-2-2--2--5-5--/7----|
|---------3-3--/5----|---------3-3--/5----|---------3-3--/5----|---------3-3--/5----|
|So Goodnight        |Goodnight           |Goodniiiiight       |Goodniiiiiiight Yeah|
|                    |                    |                    |                    |
|Gtr. 2 Lt Flange/Wah|                    |                    |                    |
|--------------------|--------------------|--------------------|--------------------|
|--------------------|--------------------|12-12-12-12-12-12-12|12-12-12-12-12-12-12|
|--------------------|--------------------|--------------------|--------------------|
|--------------------|--------------------|--------------------|--------------------|
|--------------------|--------------------|--------------------|--------------------|
|--------------------|--------------------|--------------------|--------------------|


Ending
Gtr. 1 Clean
|--------------------|--------------------|--------------------|--------------------|
|--------------------|--------------------|--------------------|--------------------|
|-4--4--4x4-4/7--7--7|--------------------|-4--4--4x4-4/7--7--7|--------------------|
|-4--4--4x4-4/7--7--7|-5--5--5x5-5/7--7--7|-4--4--4x4-4/7--7--7|-5--5--5x5-5/7--7--7|
|-2--2--2x2-2/5--5--5|-5--5--5x5-5/7--7--7|-2--2--2x2-2/5--5--5|-5--5--5x5-5/7--7--7|
|--------------------|-3--3--3x3-3/5--5--5|--------------------|-3--3--3x3-3/5--5--5|
|Oh yeeeah           |                    |Oh yeeeah           |                    |
|                    |                    |                    |                    |
|Gtr. 2 Distorted    |                    |                    |                    |
|--------------------|--------------------|--------------------|--------------------|
|--------------------|--------------------|--------------------|--------------------|
|-4--4--4x4-4/7--7--7|--------------------|-4--4--4x4-4/7--7--7|--------------------|
|-4--4--4x4-4/7--7--7|-5--5--5x5-5/7--7--7|-4--4--4x4-4/7--7--7|-5--5--5x5-5/7--7--7|
|-2--2--2x2-2/5--5--5|-5--5--5x5-5/7--7--7|-2--2--2x2-2/5--5--5|-5--5--5x5-5/7--7--7|
|--------------------|-3--3--3x3-3/5--5--5|--------------------|-3--3--3x3-3/5--5--5|


Gtr. 1 Distorted
|--------------------|--------------------|--------------------|--------------------|
|--------------------|--------------------|--------------------|--------------------|
|-4444-----4444----/7|--------------------|--------------------|--------------------|
|-4444-----4444----/7|-5--5--5x5-5/7--7--7|-2--2--2-2-x-2-x-2-4|-5------------------|
|-2222-----2222----/5|-5--5--5x5-5/7--7--7|-2--2--2-2-x-2-x-2-4|-5------------------|
|--------------------|-3--3--3x3-3/5--5--5|-0--0--0-0-x-0-x-0-2|-3------------------|
|Oooooooh    yeah    |                    |                    |                    |
|                    |                    |                    |                    |
|Gtr. 2 Distorted    |                    |                    |                    |
|--------------------|--------------------|--------------------|--------------------|
|--------------------|--------------------|--------------------|--------------------|
|-4444-----4444----/7|--------------------|--------------------|--------------------|
|-4444-----4444----/7|-5--5--5x5-5/7--7--7|-2--2--2-2-x-2-x-2-4|-5------------------|
|-2222-----2222----/5|-5--5--5x5-5/7--7--7|-2--2--2-2-x-2-x-2-4|-5------------------|
|--------------------|-3--3--3x3-3/5--5--5|-0--0--0-0-x-0-x-0-2|-3------------------|


Lyrics

Do you remember all the things you said to me? 
You made them sound so simple but they're just not that easy 
And you swear that I could be someone 
To hold you for all time...
Baby, not tonight

I've tried to tell you now, but I can't find those words 
I've tried to show you how, but that's pain you don't deserve 
And you're sitting there and asking
If you can come inside 
Baby, not tonight.

Take a look at what we've become.
A tragedy but I can't find the love 
That we started with so long ago,
I know this isn't right 
It's the last time I'll be kissing you
So good night. 
Good night. 

This is gonna hurt me now, much more than it hurts you .
Sad old cliches are slowly turning true
You can tell that something's wrong and ask 
"Can we talk a while?"
Baby, not tonight.

And take a look at what we become 
A tragedy but I can't find my love 
And the star had left so long ago 
And I know this isn't right 
It's the last time I'll be kissing you... 
So good night. 
Good night. 

We're driving home and you can see this in my eyes.
Yours start to tear up, you see straight through my disguise.
You lean in in so much closer now,
Holding on so tight 
It's the last time I'll be kissing you...
So good night.
Comments