Adeaze - Stronger Chords & Tabs

 

Stronger Chords & Tabs

Adeaze Chords & Tabs

Version: 1 Type: Tab 0 ratings
1 star 2 stars 3 stars 4 stars 5 stars
comments

Stronger Tab

ok this is a pretty good tab its not quiet the whole thing but o well

/=a pause

-------4-4-4-4----7--5-5-5-4-4--------------4---------------|
-5--7----------7---------------7-5-5-5-5/5-7--7-5-7---------|
------------------------------------------------------------|
------------------------------------------------------------|
------------------------------------------------------------|
------------------------------------------------------------|
[ Tab from: http://www.guitartabs.cc/tabs/a/adeaze/stronger_tab.html ]
-----4-4-4-4---7-5-5-5-4-4---------------4-----------------------------------|
-5-7---------7-------------7-5-5-5-5/5-7---7-5-7-5-4-5-----------------------|
-----------------------------------------------------------------------------|
-----------------------------------------------------------------------------|
-----------------------------------------------------------------------------|
-----------------------------------------------------------------------------|
Comments