Adams Ryan - So Alive Chords & Tabs

 

So Alive Chords & Tabs

Adams Ryan Chords & Tabs

Version: 1 Type: Tab 0 ratings
1 star 2 stars 3 stars 4 stars 5 stars
comments

So Alive Tab

Ryan Adams 
So Alive
This is 100% correct
Standard Tuning


Main Riff:
--0-0-0-0-0-0-0-0-0-0-0-0-0-0-0-0-0-0-0-0-0-0-0-0-0-0-0-0-0-0-0---
--7-7-7-7-7-7-5-5-10-10-10-10-9-9-9-9-7-7-7-7-7-7-5-5-10-10-10-10-
------------------------------------------------------------------
------------------------------------------------------------------
------------------------------------------------------------------
------------------------------------------------------------------

[ Tab from: http://www.guitartabs.cc/tabs/a/adams_ryan/so_alive_tab.html ]
Continued
--0-0-0-0-0-0-0-0-0-0-0-0-0-0-0-0-0-0-0-0-0-0-0-0-0-0-0-0-0-0-0-0
--9-9-9-9-12-12-12-12-12-12-5-5-10-10-10-10-9-9-9-9-2-2-2-2-2-2-2
-----------------------------------------------------------------
-----------------------------------------------------------------
-----------------------------------------------------------------
-----------------------------------------------------------------

Continued
----------------------------------------------------------------
--0-0-0-0-0-0-0-0---0-0-0-0-0-0-0-0-----------------------------
--2-2-4-4-4-4-4-4-0-2-4-4-4-4-4-0-0-----------------------------
---------------------------------------2------------------------
----------------------------------------------------------------
----------------------------------------------------------------

Note to self: Dont Die!
Comments