Adams Bryan - I Do It For You Chords & Tabs

 

I Do It For You Chords & Tabs

Adams Bryan Chords & Tabs

Version: 1 Type: Bass Tab 0 ratings
1 star 2 stars 3 stars 4 stars 5 stars
comments

I Do It For You Bass Tab

   
xxxxxxxxxxxxxxxxxxxxxxxxxxxxxxxxxxxxxxxxxxxxxxxxxxxxxxxxxxxxxxxxxxxxxx
                                                                    70
                 (Everything I Do) I Do It For You
                 Words by Bryan Adams & 'Mutt' Lange
                       Music by Micheal Kamen
                     Tabbed by W.Mitty 05/01/01

                     !!! IMPROVED VERSION !!!
Key:
\ or / = slide
     h = hammer on
     b = bend
     | = bar lines (are probably not correct, use as guide only)
     x2= play this bar twice
     
This may not be 100% correct but its how I play it... 

A Major/F# minor(Dorian mode?)
Tempo= 66

                                                    x2   
G-----------|--------|--------|--------------|--------|---------------
D-----------|--------|--------|--------------|--------|---------------
A-11\4--4-4-|-4--4-4-|--------|-----------6--|-4--4-4-|-044-------1/4-
E-----------|--------|-2--2-2-|-44--4-4--4-4-|--------|----2--2-2-----


                              x2
G-----------|------------------|--------------|-----------|----------
D-----------|------------------|--------------|-----------|----------
A-----------|^44-6---4--6--6-6-|-46--64---4-4-|-4-6-------|-1/4--4-4-
E-4-4--4-4-4|^-----------------|--------------|----4--4-4-|----------
             ^1 drum 1st time
              2 drum 2nd time 


[ Tab from: http://www.guitartabs.cc/tabs/a/adams_bryan/i_do_it_for_you_btab.html ]
G--------------|---------|---------------|--------------|-------------
D--------------|---------|---------------|--------------|-------------
A-04--4-4--44--|2--2-2/5-|---------------|-2--2-2--2255-|-------------
E------------4-|---------|-0--0-0--02020-|--------------|-2--2-2--2422
                       ^               
                     dont             
                    pick 5            



                                                         x2         x2
G--------|----------------------|----------------||--------|----------
D--------|----------------------|----------------||--------|----------
A-4--4-4-|-4546---666-----4--66-|6-4-66--6-------||--------|-244--4-4-
E--------|------4----4--7-------|----------4/-16-||-2--2-2-|----------
  ^                                           ^
  shift hand                                  hold
  to 4th fret                               


G-------------|---------|---------------|-----------------|-----------
D-------------|---------|---------------|-----------------|-----------
A-4044--------|-4-------|-2h55-2-4--4-4-|-204--024---4444-|-6--6-6----
E-----22-2-2--|--2--2-2-|---------------|-----------------|-----------



              
G----------|--------------|-------------------|-------------|---------
D----------|--------------|-------------------|-------------|---------
A-4-6-4-6b-|--------------|-6--44-6--4-6-4-6b-|-------------|-4--4-4/6
E----------|-4--444--4444-|-------------------|-4---4-44444-|---------
                                                                     ^
                                                                  dont
                                                                pick 6


G------------|-------|------------------------------------------------
D------------|-------|------------------------------------------------
A--------------------|-44---------------------------------------------
E-4--4-4--444\2--2-2-|2---2-2-------END-------------------------------
                            ^
                            hold                  W.Mitty  05/01/01

Printing: load this into Notepad, set left & right margins to 10mm
and then print.

Comments