Adams Bryan - Everything I Do I Do It For You Solo Chords & Tabs

 

Everything I Do I Do It For You Solo Chords & Tabs

Adams Bryan Chords & Tabs

Version: 1 Type: Tab 2 ratings
1 star 2 stars 3 stars 4 stars 5 stars
comments

Everything I Do I Do It For You Solo Tab

-----------------------------------------------------------------------------------------------------------
-----------------------------------------------------------------------------------------------------------
-------11----------------------------11-----------------------------------------------11-14-14-------------
14-------------------12---------14-------16-14-12--------12-14------12-12---------------------------12-----
-------------14-------------------------------------14-----------14----------------------------------------
-----------------------------------------------------------------------------------------------------------

[ Tab from: http://www.guitartabs.cc/tabs/a/adams_bryan/everything_i_do_i_do_it_for_you_solo_tab.html ]
-----------------------------------------------------------------------------------------------------------
--------12—15—12-------------12-------12-------------------------------------------------------------------
---14-----------------------------14------------11-------11—11---------------------------------------------
------------------------------------------------------------------14-12------------------------------------
-----------------------------------------------------------------------------------------------------------
-----------------------------------------------------------------------------------------------------------

This is the solo to Bryan Adams’ everything I do.  I realised that, havin just picked up the chords, that no 1 had done the solo; so this is what I came up with.  

Please write with any comments & questions.

Cheers dom.

PS I apologise that I don’t not know the tab lingo 2 well but if u listen 2 the song u’ll find out the rhythm.
Comments