Adam Sandler - Mr I Do And The Doo Doo Dolls Chords & Tabs

 

Mr I Do And The Doo Doo Dolls Chords & Tabs

Adam Sandler Chords & Tabs

Version: 1 Type: Tab 0 ratings
1 star 2 stars 3 stars 4 stars 5 stars
comments

Mr I Do And The Doo Doo Dolls Tab

   
-------------------------------------------------------------------------------
                MR I DO AND THE DOO DOO DOLLS - Adam Sandler
-------------------------------------------------------------------------------
Tabbed by: Matt Arnott
Email:iliveatanarnottsfactory@hotmail.com

WAS PLAYING AROUND ONEDAY AND I ACCIDENTALLY PLAYED THIS, IT IS PRETTY EASY.



Tuning: Standard
[ Tab from: http://www.guitartabs.cc/tabs/a/adam_sandler/mr_i_do_and_the_doo_doo_dolls_tab.html ]
Main
            D     G       G     D           D     G       G G     D
E-|- - - -|-2-0---3-----|-3---0-2---------|-2-0---3-----|-3-3----(2)---------|
B-|- - - -|-3---3-3---3-|-3-3---3---------|-3---3-3---3-|-3-3-----3----------|
G-|- - - -|-2-----0-----|-0-----2---------|-2-----0-----|-0-0-----2----------|
D-|- - -0-|-0-----0-----|-0-----0--------0|-0-----0-----|-0-0-----0----------|
A-|-0/2- -|-------2-----|-2----------0/2--|-------2-----|-2-2-----0----------|
D-|- - - -|-------3-----|-3---------------|-------3-----|-3-3----------------|




short SOLO (this is pretty accurate although i play it differently,
coz i think it sounds better but i tabbed this to the real song.)

E-|-----------------------------------------------|
B-|-----------------------------------------------|
G-|-----------------------------------------------|
D-|-----0-2-4^-2^-0^---------0-2-----0-2-2^-0-----|
A-|-0-2--------------2^--0-2-----0-2--------------|
D-|-----------------------------------------------|




| ^   bend
| (2) don't sound this note (dead)
| /   pull up    
===============================================================================
Comments