Adam Sandler - I Wanna Grow Old With You Chords & Tabs

 

I Wanna Grow Old With You Chords & Tabs

Adam Sandler Chords & Tabs

Version: 1 Type: Tab 0 ratings
1 star 2 stars 3 stars 4 stars 5 stars
comments

I Wanna Grow Old With You Tab

this is my 1st tab and i think it is al correct! let me kno if anything is
wrong...thanks! the tunning is regular....jus listen to the song and you will get the
rythem...

e|-----------------------------------------------------------------------|
b|------------------------------------------7----------------------------|
g|-------------6-6-6-6-6-7-7-7-7-9-9-9-9-9----9-----6-6-6-6-------7-6----|
d|-----------9----------------------------------7-9---------9-9-9-----7--|
a|----7-7-7--------------------------------------------------------------|
E|-----------------------------------------------------------------------|

[ Tab from: http://www.guitartabs.cc/tabs/a/adam_sandler/i_wanna_grow_old_with_you_tab.html ]
e|-----------------------------------------------------------------------|
b|-----------------------------------------7-----------------------------|
g|-------------6-6-6-6-6-7-7-7-7-9-9-9-9-9---9-----6-6-6-6-------7-6-----|
d|-----------9---------------------------------7-9---------9-9-9-----7---|
a|----7-7-7--------------------------------------------------------------|
E|-----------------------------------------------------------------------|


e|-------------------------------- --------------------------------------|
b|-------------------------------- --------------------------------------|
g|-----9---9---9-9-9-9--6-7-6----- -9---9---9-9-9-9-9--6-7-6-------------|
d|---7---7---7----------------7--- ---7---7------------------7-----------|
a|-------------------------------- --------------------------------------|
E|-------------------------------- --------------------------------------|

e|---------------------------------------------------------------------------|
b|--------------------------------------7------------------------------------|
g|-6-6-6-6-6-6-6-6-7-7-7-9-9-9-9-9-9-9-9-6-----6-6-6-6------7-6--------------|
d|7----------------------------------------7-9--------9-9-9----7-7-7-7-6-7---|
a|---------------------------------------------------------------------------|
E|---------------------------------------------------------------------------|
Comments