Adam Sandler - Forgetful Lucy Chords & Tabs

 

Forgetful Lucy Chords & Tabs

Adam Sandler Chords & Tabs

Version: 2 Type: Tab 0 ratings
1 star 2 stars 3 stars 4 stars 5 stars
comments

Forgetful Lucy Tab

|----------------------------------1----------2--3-------------1-------|
|-----------1-----------1--------1---------3----------------1----------|
|----------------------------------------2-----------------------------|
|------2------------2---------2------------------------2---------------|
|----3------------2---------3-----------------------3------------------|
|----------------------------------------------------------------------|
[ Tab from: http://www.guitartabs.cc/tabs/a/adam_sandler/forgetful_lucy_tab_ver_2.html ]
     Forgetfull Lucy ,  has a nice caboosy

|-----------------------------------------------------------------------|
|-----------------------------------------------------------------------|
|-----------------------------------------------------------------------|
|----2-----0------2------3------5-----2/3-----8----9------2---3----1--0-|

    my name is andy duguay on vacation so you cant reach me to show me that these
are the wrong chords!! ha ha ha by!!!
Comments