Adam Green - Emily Chords & Tabs

 

Emily Chords & Tabs

Adam Green Chords & Tabs

Version: 2 Type: Tab

Emily Tab

Adam Green
Emily


Verse: 


E\ -10-10-10-10-10-10-10-10--3-3-3-3-3-3-3-3-\
B\ -10-10-10-10-10-10-10-10--3-3-3-3-3-3-3-3-\
G\ -11-11-11-11-11-11-11-11--4-4-4-4-4-4-4-4-\
D\ -12-12-12-12-12-12-12-12--5-5-5-5-5-5-5-5-\
A\ -12-12-12-12-12-12-12-12--5-5-5-5-5-5-5-5-\
E\ -10-10-10-10-10-10-10-10--3-3-3-3-3-3-3-3-\

[ Tab from: http://www.guitartabs.cc/tabs/a/adam_green/emily_tab_ver_2.html ]
E\-10-10-10-10-10-10-10-10--5-5-5-5-5-5-5-5-\
B\-10-10-10-10-10-10-10-10--5-5-5-5-5-5-5-5-\
G\-11-11-11-11-11-11-11-11--6-6-6-6-6-6-6-6-\
D\-12-12-12-12-12-12-12-12--7-7-7-7-7-7-7-7-\
A\-12-12-12-12-12-12-12-12--7-7-7-7-7-7-7-7-\
E\-10-10-10-10-10-10-10-10--5-5-5-5-5-5-5-5-\


E\-10-10-10-10-10-10-10-10--3-3-3-3-3-3-3-3-\
B\-10-10-10-10-10-10-10-10--3-3-3-3-3-3-3-3-\
G\-11-11-11-11-11-11-11-11--4-4-4-4-4-4-4-4-\
D\-12-12-12-12-12-12-12-12--5-5-5-5-5-5-5-5-\
A\-12-12-12-12-12-12-12-12--5-5-5-5-5-5-5-5-\
E\-10-10-10-10-10-10-10-10--3-3-3-3-3-3-3-3-\


E\-10-10-10-10-----10-10-10-10-10-10-10-10-\
B\-10-10-10-10--2--10-10-10-10-10-10-10-10-\
G\-11-11-11-11--2--11-11-11-11-11-11-11-11-\
D\-12-12-12-12--2--12-12-12-12-12-12-12-12-\
A\-12-12-12-12-----12-12-12-12-12-12-12-12-\
E\-10-10-10-10-----10-10-10-10-10-10-10-10-\