Action Action - Smoke And Mirrors Chords & Tabs

 

Smoke And Mirrors Chords & Tabs

Action Action Chords & Tabs

Version: 1 Type: Bass Tab

Smoke And Mirrors Bass Tab

----------------------------------------------------------------------------
			  Smoke And Mirrors - Action Action
----------------------------------------------------------------------------

Tabbed By : Curt Nilson
e-mail: cs_cn66@hotmail.com

Tuning: EADG

Main Riff
REPEATED OVER AND OVER 
[ Tab from: http://www.guitartabs.cc/tabs/a/action_action/smoke_and_mirrors_btab.html ]
G|-------------------------------------------------------------------------|
D|-------------------------------------------------------------------------|
A|---------0-2-3---3-2-0---------------------------------------------------|
E|-0-0-2-3----------------2-0----------------------------------------------|

Chorus
Played slow (X2)

G|-------------------------------------------------------------------------|
D|-------2-----------------------------------------------------------------|
A|----3-----3--------------------------------------------------------------|
E|-3-----------0--3--3--2--------------------------------------------------|