Acoustic Alchemy - Mr Chow Chords & Tabs

 

Mr Chow Chords & Tabs

Acoustic Alchemy Chords & Tabs

Version: 1 Type: Tab 0 ratings
1 star 2 stars 3 stars 4 stars 5 stars
comments

Mr Chow Tab

   
-------------------------------------------------------------------------------
			     MR. CHOW - Acoustic Alchemy
-------------------------------------------------------------------------------

Tabbed by:
Email:

Tuning:
[ Tab from: http://www.guitartabs.cc/tabs/a/acoustic_alchemy/mr_chow_tab.html ]
e|---------------------------------------------------------------------------|
B|---------------------------------------------------------------------------|
G|---------------------------------------------------------------------------|
D|-----1-3-4-3-1----------4-3-1----------------------------------------------|
A|-1-2-----------2--------------2-1------------------------------------------|
E|---------------------------------------------------------------------------|
intro pm............................
e|-----11/13-------9h11-11-11------------------------------------------------|
B|---14------14-11------------11p9-9~----------------7h9-7-------------------|
G|-15-------------------------------------9p8-6------------9p8-6~----6-6-----|
D|-----------------------------------------------6-6---------------6-----8-6-|
A|---------------------------------------------------------------------------|
E|---------------------------------------------------------------------------|
  Riff 1                                                            pm........
e|-11/13-13-13-------9h11-11-11---------------9~--12p11-9~---9~--------------|
B|-------------14-11------------11p9-9~---9/11------------11-----------------|
G|---------------------------------------------------------------------------|
D|---------------------------------------------------------------------------|
A|---------------------------------------------------------------------------|
E|---------------------------------------------------------------------------|
  Riff 2
e|-----9~-11-11/12-----16-14-12----9~----------------------------------------|
B|-9/11------------12~----------12-------------------------------------------|
G|---------------------------------------------------------------------------|
D|---------------------------------------------------------------------------|
A|---------------------------------------------------------------------------|
E|---------------------------------------------------------------------------|
 2nd part of riff 2
e|--------------------------------------------------------------7------------|
B|----------------9-7---------------7---7/9-9~--------------------10-8-7-----|
G|---6-8-9--6-8-9-----9-8-----6-8-9---9------------6-8-9--6-8-9--------------|
D|-6------------------------6--------------------6---------------------------|
A|---------------------------------------------------------------------------|
E|---------------------------------------------------------------------------|
 Riff 3
e|---------------------|-----------------------------------------------------|
B|---------7---7/9-9~--|-----------------------------------------------------|
G|---6-7-9---9---------|-----------------------------------------------------|
D|-6-------------------|-----------------------------------------------------|
A|---------------------|-----------------------------------------------------|
E|---------------------|-----------------------------------------------------|
                        Move Riff Up 2 Frets and Repeat
e|-9-----7----9-----7----9-----7----9-----------------------------------------|
B|-9-----7----9-----7----9-----7----9-----------------------------------------|
G|-10----9----11----8----11----9----10----------------------------------------|
D|-11----9----11----9----11----9----11----------------------------------------|
A|-11----7----9-----9----9-----7----11----------------------------------------|
E|-9----------------7---------------9-----------------------------------------|
 Main Chords over Riffs 1 and 2


| /  slide up
| \  slide down
| h  hammer-on
| p  pull-off
| ~  vibrato
| +  harmonic
| x  Mute note

===============================================================================
Comments