Acoustic Alchemy - Ballad For Kay Chords & Tabs

 

Ballad For Kay Chords & Tabs

Acoustic Alchemy Chords & Tabs

Version: 2 Type: Tab 0 ratings
1 star 2 stars 3 stars 4 stars 5 stars
comments

Ballad For Kay Tab

Questions or comments? e-mail me at Jaek85@hotmail.com

------THIS IS THE 100% COMPLETE, CORRECT VERSION-------

Intro: Sounds highly cool!
|-------------|-------------|-------------|------------------|
|-5-----5-----|-5-----5-----|-5---4h5-----|-5-----5---4------|
|-----4---4---|-----4---4---|---------4---|-----4-------4----|
|---4-------4-|---7-------7-|---6-------6-|---6--------------|
|-7-----------|-6-----------|-4-----------|------------------|
|-------------|-------------|-------------|-7---------4------|

|-------------|-------------|-------------|-0-----0----------|
|-2-----2-----|-2-----2-----|-5-----5-----|-----0---0--------|
|-----4---4---|-----2---2---|-----2---2---|---1-------1------|
|---4-------4-|---2-------2-|---4-------2-|------------------|
|-------------|-0-----------|-2-----------|------------------|
|-4-------4---|-------------|-------------|-0----------------|

|-----------7------------------9~~-------------11-11h12------|
|---5-7-7/9---10~~~-9p7h9~~---------12p10h12~~----------10~~~|
|-4-------------------------/9-------------------------------|
|------------------------------------------------------------|
|------------------------------------------------------------|
|------------------------------------------------------------|

|-9-9h11-----------------------------------------------------|
|--------12-10---99h10p9-------------------------------------|
|--------------9---------11----------------------------------|
|---------------------------9~~~-----------------------------|
|------------------------------------------------------------|
|------------------------------------------------------------|

|-----------7----------9-12-11h12p11p9-----------------------|
|---5-7-7/9---10---/12----------------12~--10-9h10p9---------|
|-4--------------------------------------------------11-9----|
|------------------------------------------------------------|
|------------------------------------------------------------|
|------------------------------------------------------------|

|-------------------------------| R     (REPEAT THIS WHOLE UPPER 
|-------12-----10~----9---------| E     SECTION WITHOUT THE 
|-8-8/9------9------9---11-9-9--| P     FINGERPICKING INTRO)
|-----------9------9------------| E
|-------------------------------| A
|-------------------------------| T

THIS PART IS PLAYED AFTER THE REPEAT:

|-12----12-11----9~---9--------------------------------|
|-~----------12---------12-10-12~---10-----------------|
|-9-----------------------------------11----9~~--------|
|----------------------------------------12------------|
|------------------------------------------------------|
|------------------------------------------------------|
[ Tab from: http://www.guitartabs.cc/tabs/a/acoustic_alchemy/ballad_for_kay_tab_ver_2.html ]
|------------------------------------------------------------|
|-12-10p9h10-9-----12-10p9h10-9-----12-10p9h10-9h10p9------9-|
|-------------9----------------9---------------------9-9-11--|
|-----------------------------------------------------9------|
|------------------------------------------------------------|
|------------------------------------------------------------|

|-12-11---9~---9-------------------------------|
|------12--------14\12-10-12~---10-------------|
|----------------------------------11----9~~~--|
|-------------------------------------12-------|
|----------------------------------------------|
|----------------------------------------------|


|---------------------------------------------------------------|
|12-10p9h10-9----12-10p9h10-9h10p9-----12-10p9h10-9h10p9--------|
|------------9--------------------9---------------------9-9-11~~|
|-------------9--------------------9---------------------9------|
|---------------------------------------------------------------|
|---------------------------------------------------------------|

|------------------------7-9-9/11-12/14--------|
|--------------------7h9----------------12~~~--|
|------8-9-9h11--------------------------------|
|--9-11---------9~~----------------------------|
|-9--------------------------------------------|
|----------------------------------------------|


|-----------7----------------9-11--12----9-------------------------|
|---5-7-7/9---10~~~-9p7h9~~----------10----12---12~~-10--------5---|
|-4-------------------------9-----------------9--------7~~-5h7-----|
|------------------------------------------------------------------|
|------------------------------------------------------------------|
|------------------------------------------------------------------|

|-/7-----------8-7~~-7-10-8~~-----12-----------------12~~-8--9-7---|
|---8--10~~-10------------------13---15~~--13-13h15--------10------|
|----9------------------------12---------------------------------9-|
|------------------------------------------------------------------|
|------------------------------------------------------------------|
|------------------------------------------------------------------|

|-----------7------------------9~~-------------11-11h12------|
|---5-7-7/9---10~~~-9p7h9~~---------12p10h12~~----------10~~~|
|-4-------------------------/9-------------------------------|
|------------------------------------------------------------|
|------------------------------------------------------------|
|------------------------------------------------------------|

|-9-9h11-----------------------------------------------------|
|--------12-10---99h10p9-------------------------------------|
|--------------9---------11----------------------------------|
|---------------------------9~~~-----------------------------|
|------------------------------------------------------------|
|------------------------------------------------------------|

|-----------7----------9-12-11h12p11p9-----------------------|
|---5-7-7/9---10---/12----------------12~--10-9h10p9---------|
|-4--------------------------------------------------11-9----|
|------------------------------------------------------------|
|------------------------------------------------------------|
|------------------------------------------------------------|
--->slow down playing and end here.
Comments