Aclys - Leidspanne Chords & Tabs

 

Leidspanne Chords & Tabs

Aclys Chords & Tabs

Version: 1 Type: Tab 0 ratings
1 star 2 stars 3 stars 4 stars 5 stars
comments

Leidspanne Tab

Date: Sat, 28 Jun 2003

Title:  "Leidspanne" 
Artist: "Aclys"
Album:  "Liedergeburt"
Transcribed by samir.h (thewrittenwordremains@hotmail.com)


intro

e|----------------------------------------|---------|
h|----------------------------------------|---------|
g|----------------------------------------|---------|
d|--p.m.-------p.m.-------p.m.-------p.m.-|---------|
a|--------2----------3----------2---------|-3----2--|
e|--0--0--0----0--0--1----0--0--0----0--0-|-1----0--|
    
?part 1?
e|---------------------------------------------------|
h|---------------------------------------------------|
g|---------------------------------------------------|
d|---------------------------------------------------|
a|-----14--15--12--17--15-----14--15--12--17--19-----|
e|--0--12--13--10--15--13--0--12--13--10--15--17-----|  2x


e|---------------------------------------|---------------------------------------|
h|---------------------------------------|---------------------------------------|
g|---------------------------------------|---------------------------------------|
d|---------------------------------------|---------------------------------------|
a|---------------------------------------|--------------------------12-10--------|
e|--x-x-12--13-12--15-x-10-12-x-12-13-15-|-x-x-12-13p-12-15-x-10-12-------12-13--|  2x


?part 1?
e|---------------------------------------------------|
h|---------------------------------------------------|
g|---------------------------------------------------|
d|---------------------------------------------------|
a|-----14--15--12--17--15-----14--15--12--17--19-----|
e|--0--12--13--10--15--13--0--12--13--10--15--17-----|  2x


?part 2?     hat es ein ende..      wo liegt die grenze..
e|-----------------------------|---------------------------|
h|-----------------------------|---------------------------|
g|-----------------------------|---------------------------|
d|------------------5----------|---------------------------|
a|----------7/8-7-----7-8-10---|---------7/8-7/8-5-7-8-10--|
e|--0000-0---------------------|--0000-0-------------------|  4x

or you can play:
e|------------------------|-----------------------------|
h|------------------------|-----------------------------|
g|----------7-------------|-----------------------------|
d|----------5--9--10--12--|----------9/10--7--9-10--12--|
a|-------------7---8--10--|----------7/-8--5--7--8--10--|
e|--0000-0----------------|--0000-0---------------------|  4x

                                                                   
?part 3?                                                                 
e|----------------------------------------|---------------------|    after the 2nd time
h|----------------------------------------|---------------------|          bass
g|----------------------------------------|---------------------|       |---------|
d|----------------------------------------|---------------------|       |---------|
a|---/14--x-x-x-x-------------------------|--/14--x-x-x-x--14---|       |---------|
e|---/12--x-x-x-x--12h13-12-15-13-12-13---|--/12--x-x-x-x--12---|  2x   |-0-0-0-0-| 



?part 4?
e|--------------------------------------------------------------------------------|
h|--------------------------------------------------------------------------------|
g|--------------------------------------------------------------------------------|
d|------------------------------play fast-----------------------------------------|
a|--------------------------------------------------------------------------------|
e|--12-12-12-12-12-13-13-13-10-10-10---10-10-10-12-12-12-12-13-13-13-13-15-15-15--|

e|------------------------------------------------------------------|
h|------------------------------------------------------------------|
g|------------------------------------------------------------------|
d|------------------------------play fast---------------------------|
a|------------------------------------------------------------------|
e|--17-17-17-17-15-15-15-15-13-13-13-13-15-15-15-13-13-13-13-12-12--|

[ Tab from: http://www.guitartabs.cc/tabs/a/aclys/leidspanne_tab.html ]
e|-----------------------------------------------------------------------------------|
h|-----------------------------------------------------------------------------------|
g|-----------------------------------------------------------------------------------|
d|------------------------------play fast--------------------------------------------|
a|-----------------------------------------------------------------------------------|
e|--12-12-12-12-12-13-13-13-10-10-10---10-10-10-12-12-12-12-13-13-13-13-15-15-15-15--|

e|---------------------------------------------------------------------------------|
h|---------------------------------------------------------------------------------|
g|---------------------------------------------------------------------------------|
d|------------------------------play fast------------------------------------------|
a|---------------------------------------------------------------------------------|
e|--17-17-17-17-19-19-19-19-17-17-17-17-15-15-15-17-17-17-17-15-15-15-15-13-13-13--| 4x

?part 1? (2x)
?part 2? (4x) 

then
?part 3? again
e|----------------------------------------|---------------------|
h|----------------------------------------|---------------------|
g|----------------------------------------|---------------------|
d|----------------------------------------|---------------------|
a|---/14--x-x-x-x-------------------------|--/14--x-x-x-x--14---|
e|---/12--x-x-x-x--12h13-12-15-13-12-13---|--/12--x-x-x-x--12---|

e|----------------------------------------|-----------------------------------------|
h|----------------------------------------|-----------------------------------------|
g|----------------------------------------|-----------------------------------------|
d|----------------------------------------|-----------------------------------------|
a|---/14--x-x-x-x-------------------------|--/14--x-x-x-x----14-15-19-17-x-x-x-x-x--|
e|---/12--x-x-x-x--12h13-12-15-13-12-13---|--/12--x-x-x-x----12-13-17-15-x-x-x-x-x--|


solo
e|------------------------------------------------------------|
h|------------------------------------------------------------|
g|------------------------------------------------------------|
d|------------------------------------------------------------|
a|--5/7-x-x-10-10-9-9-10/12-10-9-12/14-14-12-12-10-10-9/10-9--|
e|------------------------------------------------------------|

e|----------------------------------|-----------------------------------|
h|----------------------------------|-----------------------------------|
g|----------------------------------|-----------------------------------|
d|----------------------------------|-----------------------------------|
a|--5-7-7-7-7-7-7-7-10-9-9-9-9/10/9-|--5-7-7-7-7-7-7-7/12-12-10-10-9-9--|
e|----------------------------------|-----------------------------------|

after 2x
e|-------------------------------------------------------------------------------|
h|-------------------------------------------------------------------------------|
g|-------------------------------------------------------------------------------|
d|-------------------------------------------------------------------------------|
a|-----------------------------------19----17----15--17-15-14----14-15-17----15--|
e|--10/12-x-x-15-x-14-14/19-17-14-15----17----15--------------15----------15-----|

e|---------------------------------------------------|
h|---------------------------------------------------|
g|---------------------------------------------------|
d|---------------------------------------------------|
a|--15/17-15-14-------12-14--15/17-15-14-------------|
e|--------------15-14--------------------15-14-12h14-|

then
e|-----------------|----------------|-----------------|-----------------|
h|-----------------|----------------|-----------------|-----------------|
g|-----------------|----------------|-----------------|-----------------|
d|-----------------|----------------|-----------------|-----------------|
a|--14-x-x-14-x-14-|----x-x-16-x-16-|--17-x-x-17-x-17-|--17-16---16-17--|
e|--12-x-x-12-x-12-|-14-x-x-14-x-14-|--15-x-x-15-x-15-|--15-14---14-15--|

?part 4?
?part 1?

then
e|---------------------------------------|-------------------------------------------|
h|---------------------------------------|-------------------------------------------|
g|---------------------------------------|-------------------------------------------|
d|---------------------------------------|-------------------------------------------|
a|---------------------------------------|--------------------------12-10----------14|
e|--x-x-12--13-12--15-x-10-12-x-12-13-15-|-x-x-12-13p-12-15-x-10-12-------12-13----12|  


lyrics: 
Hat es ein Ende? Wo liegt die Grenze?
Der klaffende Schnitt zwischen Blut und Blut.
Wieviel mehr? Wieviel mehr noch?
Schon von Beginn an war es mehr als zu viel.
Das erträgt niemand.
Niemand kann
so viele Tränen trinken,
Worte von Gift verstehen,
sich fremde Form gebären,
an leere Orte gehen.

Eine Narbe Mensch...
in Asche - verfemt.
Wieviel mehr? Wieviel mehr noch?
Schon von Beginn an war es mehr als zu viel.
Comments