Acid King - The Stake Chords & Tabs

 

The Stake Chords & Tabs

Acid King Chords & Tabs

Version: 1 Type: Bass Tab 0 ratings
1 star 2 stars 3 stars 4 stars 5 stars
comments

The Stake Bass Tab

http://www.acidking.com/

Tuning: D Standard

Legend:
b - bend
r - release
br - bend then release
h - hammer-on
p - pull-off
/ - slide up
\ - slide down


intro

 x3
|-------------|-------------|
|-------------|-------------|
|-------------|-------------|
|-0-0-0-0-0-0-|-0-0-0-0-5-3-|


main riff

|-------------------------------|
|-------------------------------|
|------5---5---5-7---5-7--------|
|-0--0---7---7-----0------3/5br-|

verse

x4
|-------------------|
|-------------------|
|-------------------|
|-12-12-12-12-12-12-|
[ Tab from: http://www.guitartabs.cc/tabs/a/acid_king/the_stake_btab.html ]
chorus (on guitar)
nobody loves you like the way i do
|------------------|
|------5-----------|
|-7-77---7-5-------|
|------------7-3-5-|

before solo

|-----------------------------|
|-----------------------------|
|------5---5---5-7---5-7------|
|-0--0---7---7-----0------5-6-|

solo backing 

|---------------------------|
|---------------------------|
|---------------------------|
|-7-77-77-77-77-77-77-4-5-6-|

last time

|---------------------------------------|
|---------------------------------------|
|---------------------------------------|
|-7-77-77-7-7-7-8-8-8-10-10-10-11-11-11-|
Comments