Acid Bath - Venus Blue Chords & Tabs

 

Venus Blue Chords & Tabs

Acid Bath Chords & Tabs

Version: 1 Type: Tab 0 ratings
1 star 2 stars 3 stars 4 stars 5 stars
comments

Venus Blue Tab

Acid Bath: Venus Blue
Written by Dax Riggs
Tab written by Nathan S.
sumraln@yahoo.com


Normal tuned six string guitar


E----------------------------------------------------------------
B----------------------------------------------------------------
G-2h3-3-3p2-----2---------0-----0----0---------------------------
D-----------3-3---3-----2---2---2---4--0-------------------------
A-------------------0-3-------3-3h-5-----------------------------
E---------------------------------------------------------------- x3


[ Tab from: http://www.guitartabs.cc/tabs/a/acid_bath/venus_blue_tab.html ]
E----------------------------------------------------------------
B----------------------------------------------------------------
G-2h3-3-3p2-----2-----0------4----4-----6------------------------
D-----------3-3---3---2----5---5--5----7--0----------------------
A-------------------0-3h-0--------0h--0--------------------------
E----------------------------------------------------------------



keep all other strings muted

E----------------------------------------------------------------
B----------------------------------------------------------------
G-4-5-5-5--------------------------------------------------------
D-2h3-3-3-5--5-5--6-6-6-6-6---7-7-7------------------------------
A---------3--3-3--4-4-4-4-4h--5-5-5------------------------------
E---------------------------------------------------------------- x4

Comments