Acid Bath - Dr Seuss Is Dead Chords & Tabs

 

Dr Seuss Is Dead Chords & Tabs

Acid Bath Chords & Tabs

Version: 1 Type: Tab 0 ratings
1 star 2 stars 3 stars 4 stars 5 stars
comments

Dr Seuss Is Dead Tab

Dr. Seuss is Dead by Acid Bath
(tabbed by Shadow of the reaper)

Drop D tuning

Bass Intro:
G|-----------------------------------------------|
D|-----------------------------------------------|
A|-----------------------------------------------|
D|-0----1---3--4--0----1---4--3-1-0-0-----0---0--|

Guitar Intro:
e|-----------------------------------------------|
B|-----------------------------------------------|
G|-----------------------------------------------|
D|------------------------------1-0-0-----0---0--|
A|------------------------------1-0-0-----0---0--|
D|------------------------------1-0-0-----0---0--|

Rhy. Fill 1:
e|-----------------------------------------------|
B|-----------------------------------------------|
G|-----------------------------------------------|
D|-----1---3--4--0----1---3--4--0----1---3--4--0-|
A|-----1---3--4--0----1---3--4--0----1---3--4--0-|
D|-----1---3--4--0----1---3--4--0----1---3--4--0-|

Rhy. Fill 2:
e|------------------------------------------------|
B|------------------------------------------------|
G|------------------------------------------------|
D|-----1---4--3--5----6---8--9--5----6---8--9--0--|
A|-----1---4--3--5----6---8--9--5----6---8--9--0--|
D|-----1---4--3--5----6---8--9--5----6---8--9--0--|

Pre-Verse:
e|-------------------------------------------------------------|
B|-------------------------------------------------------------|
G|-------------------------------------------------------------|
D|----1---3--4--0----1---3--4-1-0-0----0---0----7--3--5--1--0--|
A|----1---3--4--0----1---3--4-1-0-0----0---0----7--3--5--1--0--|
D|----1---3--4--0----1---3--4-1-0-0----0---0----7--3--5--1--0--|

e|--------------------------------------------------------------------------------|
B|--------------------------------------------------------------------------------|
G|--------------------------------------------------------------------------------|
D|-------------7--3--5--1--0-------------7--3--5--1--0-------------7--3--5--1--1--|
A|-------------7--3--5--1--0-------------7--3--5--1--0-------------7--3--5--1--1--|
D|--0--0/12~~--7--3--5--1--0--0--0/12~~--7--3--5--1--0--0--0/12~~--7--3--5--1--1--|

Verse:
e|-------------------------------------|
B|-------------------------------------|
G|-------------------------------------|
D|-1^0--0--0--1^0--0--0----------------| x4
A|-1^0--0--0--1^0--0--0----------------|
D|-1^0--0--0--1^0--0--0-----7--3--5--1-|
        pm..       pm..

Pre Chorus: faster speed than verse
e|-------------------------------------|
B|-------------------------------------|
G|-------------------------------------|
D|-1^0--0--0--1^0--0--0----------------| x4
A|-1^0--0--0--1^0--0--0----------------|
D|-1^0--0--0--1^0--0--0-----7--3--5--1-|
        pm..       pm..
[ Tab from: http://www.guitartabs.cc/tabs/a/acid_bath/dr_seuss_is_dead_tab.html ]
Chorus: faster speed than pre chorus
e|--------------------------------------------------------------|
B|--------------------------------------------------------------|
G|--------------------------------------------------------------|
D|-1^0--0--0--1^0--0--0-----------------------------------------|x8
A|-1^0--0--0--1^0--0--0-----------------------------------------|
D|-1^0--0--0--1^0--0--0-----7-7-7-7--3-3-3-3--5-5-5-5--1-1-1-1--|
        pm..       pm..

Rhy. Fill 1:
e|-----------------------------------------------|
B|-----------------------------------------------|
G|-----------------------------------------------|
D|-----1---3--4--0----1---3--4--0----1---3--4--0-|
A|-----1---3--4--0----1---3--4--0----1---3--4--0-|
D|-----1---3--4--0----1---3--4--0----1---3--4--0-|

Rhy. Fill 2:
e|------------------------------------------------|
B|------------------------------------------------|
G|------------------------------------------------|
D|-----1---4--3--5----6---8--9--5----6---8--9--0--|
A|-----1---4--3--5----6---8--9--5----6---8--9--0--|
D|-----1---4--3--5----6---8--9--5----6---8--9--0--|

Pre-Verse:
e|-------------------------------------------------------------|
B|-------------------------------------------------------------|
G|-------------------------------------------------------------|
D|----1---3--4--0----1---3--4-1-0-0----0---0----7--3--5--1--0--|
A|----1---3--4--0----1---3--4-1-0-0----0---0----7--3--5--1--0--|
D|----1---3--4--0----1---3--4-1-0-0----0---0----7--3--5--1--0--|

e|--------------------------------------------------------------------------------|
B|--------------------------------------------------------------------------------|
G|--------------------------------------------------------------------------------|
D|-------------7--3--5--1--0-------------7--3--5--1--0-------------7--3--5--1--1--|
A|-------------7--3--5--1--0-------------7--3--5--1--0-------------7--3--5--1--1--|
D|--0--0/12~~--7--3--5--1--0--0--0/12~~--7--3--5--1--0--0--0/12~~--7--3--5--1--1--|

Verse:
e|-------------------------------------|
B|-------------------------------------|
G|-------------------------------------|
D|-1^0--0--0--1^0--0--0----------------| x4
A|-1^0--0--0--1^0--0--0----------------|
D|-1^0--0--0--1^0--0--0-----7--3--5--1-|
        pm..       pm..

Pre Chorus: faster speed than verse
e|-------------------------------------|
B|-------------------------------------|
G|-------------------------------------|
D|-1^0--0--0--1^0--0--0----------------| x4
A|-1^0--0--0--1^0--0--0----------------|
D|-1^0--0--0--1^0--0--0-----7--3--5--1-|
        pm..       pm..

Chorus: faster speed than pre chorus
e|--------------------------------------------------------------|
B|--------------------------------------------------------------|
G|--------------------------------------------------------------|
D|-1^0--0--0--1^0--0--0-----------------------------------------| x8
A|-1^0--0--0--1^0--0--0-----------------------------------------|
D|-1^0--0--0--1^0--0--0-----7-7-7-7--3-3-3-3--5-5-5-5--1-1-1-1--|
        pm..       pm..


e|----------------------------------|
B|----------------------------------|
G|----------------------------------|
D|-1^0--0--0--1^0--0--0--1^0--0--0--| 
A|-1^0--0--0--1^0--0--0--1^0--0--0--|
D|-1^0--0--0--1^0--0--0--1^0--0--0--|
        pm..       pm..

Outro Riff:
e|------------------------------------|
B|------------------------------------|
G|------------------------------------|
D|-1--0-0---3--0-0---2--0-0--44444444-| x20
A|-1--0-0---3--0-0---2--0-0--44444444-|
D|-1--0-0---3--0-0---2--0-0--44444444-|
   play this part really fast
Comments