Acid Bath - Dead Girl Chords & Tabs

 

Dead Girl Chords & Tabs

Acid Bath Chords & Tabs

Version: 1 Type: Tab 0 ratings
1 star 2 stars 3 stars 4 stars 5 stars
comments

Dead Girl Tab

artist:acid bath
song: dead girl
album: paegan terrorism tactics
tabbed by: cody

tuning:Eadgbe
acoustic guitars
here is the intro lead guitar
the other guitar is strumming power chords: g,gsh,f,ash,c

e -----------------------------------
b -----------------------------------
g ---3-5b---3---3--------------------
d -5----------5--3--5--3-------------
a -----------------------5--3--3---3-
E -------------------------------5--5
[ Tab from: http://www.guitartabs.cc/tabs/a/acid_bath/dead_girl_tab.html ]
e -----------------------------------
b -----------------------------------
g -----------------------------------
d --------8----8--------10b---play 2x
a -sl.-10---10---8h-10---------------
E -----------------------------------
 
e -----------------------------------
b -----------------------------------
g -----------------------------------
d -10b-8-----------8-10-sl-14--------
a -------10-8-8-10-------------------
E -----------------------------------

e -----------------------------------
b -----------------------------------
g -----------3-5b-5------------------
d -------3-5-------------------------
a -1---------------------------------
E ---3-3-----------------------------

there it is have fum with it ACID BATH RULE!!!!!!!!!!!!!!!!!!!!!
Comments