Ace Of Base - All That She Wants Chords & Tabs

 

Ace Of Base Chords & Tabs

Version: 1 Type: Tab 0 ratings
1 star 2 stars 3 stars 4 stars 5 stars
comments

All That She Wants Tab

   
I play guitar in Eb tuning, so this tab is going to correspond to that. that means we're 
a 1/2 step down!

the little synth lick in the intro goes a bit like this:

eb :---------------------|----------------------|
Bb :---------6---6-------|---------8---8-----6--|
Gb :-7---------7-----7---|-7---------7-----7----|
Db :---------------------|----------------------|
Ab :---------------------|----------------------|
Eb :---------------------|----------------------|

eb :---------------------|----------------------|
Bb :---------6---6-------|----------------------|
Gb :-7---------7-----7---|-5------------5-7---7-|
Db :---------------------|----------7-7---------|
Ab :---------------------|----------------------|
Eb :---------------------|----------------------|

you might want another (or your own, i guess) guitar to drone a chord in the background 
there isn't really one already but C#m works well.

get your ska-tar chords on for most of the rest of the song.

C#m
She leads a lonely life

B | F#m
(music continues...)

C#m
She leads a lonely life

B | F#m
(music continues...)

keep playing the same chords in the background. the next synth whistle lead goes like this:

eb :-----------------------------|--------------------------------|
Bb :-----------------------------|-13-----------------------------|
Gb :------------------/14-----15-|------------------12------------|
Db :-----------------------------|----14------14-15----12-~~------|
Ab :-----------------------------|--------------------------------|
Eb :-----------------------------|--------------------------------|
[ Tab from: http://www.guitartabs.cc/tabs/a/ace_of_base/all_that_she_wants_tab.html ]
eb :---------------------------|----------------------------------|
Bb :---------------------------|-13-------------------------------|
Gb :------------------14---15--|-----------------14-12------------|
Db :---------------------------|------14------14------------------|
Ab :---------------------------|----------------------------------|
Eb :---------------------------|----------------------------------|

C#m
When she woke up late in the morning light
B                      F#m
And the day had just begun
C#m
She opened up her eyes and thought
G#
Oh, what a morning!
C#m
It's not a day for work
F#
Its a day for catching tan
C#                  G#
Just laying on the beach and having fun
F#m
Shes going to get you

Chorus:
C#m                           B
All that she wants is another baby
F#m
Shes gone tomorrow boy
C#m                           B
All that she wants is another baby
F#m
ey-ey-ey
C#m                           B
All that she wants is another baby
F#m
Shes gone tomorrow boy
C#m                           B
All that she wants is another baby
F#m
ey-ey-ey

then we've got a short bridge, which is the first lead again, with ska chords, C#m, B, 
behind it.

So if you are in sight and the day is right
She's a hunter youre the fox
The gentle voice that talks to you
Won't talk forever
This is a night for passion
But the morning means goodbye
Beware of what is flashing in her eyes
She's going to get you

Chorus

then there's another bridge, which goes a bit like this:

eb :---------------------------|
Bb :---------------------------|
Gb :---------------------------|
Db :---------------------------|
Ab :-5-5-----5-----------3---4-|
Eb :-------------5-------------|

that's really the bassline though.

and there's all the bits you need to play All That She Wants by Ace of Base. have fun!
Comments