Ace Enders - Lions Chords & Tabs

 

Lions Chords & Tabs

Ace Enders Chords & Tabs

Version: 2 Type: Tab 0 ratings
1 star 2 stars 3 stars 4 stars 5 stars
comments

Lions Tab

   
////////////Chords Used and Tuning//////////////
            ======================

     -->>Relative to Capo 2<<--

        A     E    E/B    B              ***Tune your guitar A half-step
                                              up on the G string (G#)***
e |-----0-----0-----0-----0--------|
B |-----2-----0-----0-----0--------|       ***As well as a CAPO on 2***
G#|-----1-----0-----1-----3--------|
D |-----2-----2-----2-----4--------|
A |-----0-----2-----2-----2--------|
E |-----------0-----0--------------|


==Intro================================================================

e |--0-----0-----0---0-----0-----0---0-----0-----0-----0-----0---------|
B |----0-----0-----0---0-----0-----0---0-----0-----0-----0-----0-------|
G#|------0-----0---------0-----0---------0-----0-----0-----0-----0-----|
D |--9---------------7---------------2-----4-----6-----7---------------|
A |--------------------------------------------------------------------|
E |--------------------------------------------------------------------|

e |--0-----0-----0---0-----0-----0---0-----0-----0-----0-----0---------|
B |----0-----0-----0---0-----0-----0---0-----0-----0-----0-----0-------|
G#|------0-----0---------0-----0---------0-----0-----0-----0-----0-----|
D |--9---------------7---------------2-----4-----6-----7---------------|
A |--------------------------------------------------------------------|
E |--------------------------------------------------------------------|
                                                               If the...

==Verse================================================================

e |--0-----0-----0---0-----0-----0---0-----0-----0-----0-----0---------|
B |----0-----0-----0---0-----0-----0---0-----0-----0-----0-----0-------|
G#|------0-----0---------0-----0---------0-----0-----0-----0-----0-----|
D |--9---------------7---------------2-----4-----6-----7---------------|
A |--------------------------------------------------------------------|
E |--------------------------------------------------------------------|
    sky goes grey and water falls                              If

e |--0-----0-----0---0-----0-----0---0-----0-----0-----0-----0---------|
B |----0-----0-----0---0-----0-----0---0-----0-----0-----0-----0-------|
G#|------0-----0---------0-----0---------0-----0-----0-----0-----0-----|
D |--9---------------7---------------2-----4-----6-----7---------------|
A |--------------------------------------------------------------------|
E |--------------------------------------------------------------------|
     I get washed away when the tide goes                      If

e |--0-----0-----0---0-----0-----0---0-----0-----0-----0-----0---------|
B |----0-----0-----0---0-----0-----0---0-----0-----0-----0-----0-------|
G#|------0-----0---------0-----0---------0-----0-----0-----0-----0-----|
D |--9---------------7---------------2-----4-----6-----7---------------|
A |--------------------------------------------------------------------|
E |--------------------------------------------------------------------|
     Breath becomes a task and punishment                      I


     B                 A

e |--0------0-----0----0------0-----0-------|
B |--0--0-----0-----0--2--0-----0-----0-----|
G#|--3----0-----0------1----0-----0---------|
D |--4-----------------2--------------------|
A |--2-----------------0--------------------|
E |-----------------------------------------|
   Remember all the things I understand....




==Pre-Chorus==========================================================

    A                                 E

e |-----0-----0-----0-----0-----0-------0-----0-----0-----0-----0-----|
B |---0-----0---0-----0-----0-----0-------0-----0-----0-----0-----0---|     <- Played in 
the background
G#|-1-----1-------1-----1-----1-------0-----0-----0-----0-----0-----0-| X2  <- of the 
chords above.
D |-------------------------------------------------------------------|     <- It's 
completely optional.
A |-------------------------------------------------------------------|
E |-------------------------------------------------------------------|
                                                   ... You had it all



==Chorus==============================================================

           A
If I could spark like a fire but be as calming as matches

            E
Then I would rule like a lion and just go off like a cannon

        A
I could kill like a tiger and push away all the feeling

           E
But I wont run like a coward or go away with the season

           A
If I could shine like a diamond but live alone on the streets

          E                                               A   E
I'd be my best as a lover and be as cool as a theif could be

            A     E
You had it all, (alll)



==Interlude==========================================================================
[ Tab from: http://www.guitartabs.cc/tabs/a/ace_enders/lions_tab_ver_2.html ]
e |-0------0------0-----0-----0--------0------0------0-----0-----0-----0-----0-------|
B |-0-0----0-0----0-0-----0-----0---0--5-5----0-0----9-0-----0-----0-----0-----0-----|
G#|-0---0--1---0--3---0-----0-----0----5---5--7---0--8---0-----0-----0-----0---------|
D |-2------2------4--------------------7------9------9-------------------------------|
A |----------------------------------------------------------------------------------|
E |----------------------------------------------------------------------------------|
                                                                             If the...
==Verse==============================================================================


e |--0-----0-----0---0-----0-----0---0-----0-----0-----0-----0---------|
B |--0-0-----0-----0-5-0-----0-----0---0-----0-----0-----0-----0-------|
G#|--8---0-----0-----7---0-----0---------0-----0-----0-----0-----0-----|
D |--9---------------7---------------2-----4-----6-----7---------------|
A |--9-----------------------------------------------------------------|
E |--------------------------------------------------------------------|
    Sky becomes all smoke and fire burns                       If

e |--0-----0-----0---0-----0-----0---0-----0-----0-----0-----0---------|
B |----0-----0-----0---0-----0-----0---0-----0-----0-----0-----0-------|
G#|------0-----0---------0-----0---------0-----0-----0-----0-----0-----|
D |--9---------------7---------------2-----4-----6-----7---------------|
A |--------------------------------------------------------------------|
E |--------------------------------------------------------------------|
     Before my lungs give up I take it in                      If

e |--0-----0-----0---0-----0-----0---0-----0-----0-----0-----0---------|
B |----0-----0-----0---0-----0-----0---0-----0-----0-----0-----0-------|
G#|------0-----0---------0-----0---------0-----0-----0-----0-----0-----|
D |--9---------------7---------------2-----4-----6-----7---------------|
A |--------------------------------------------------------------------|
E |--------------------------------------------------------------------|
     Breath becomes a task and punishment                      I


     B                 A

e |--0------0-----0----0------0-----0-------|
B |--0--0-----0-----0--2--0-----0-----0-----|
G#|--3----0-----0------1----0-----0---------|
D |--4-----------------2--------------------|
A |--2-----------------0--------------------|
E |-----------------------------------------|
   Try to say the things worth holding in....


==Pre-Chorus=================================

     E/B    E                   E/B    E

e |-----------------------------------------|
B |-----------------------------------------|
G#|-----------------------------------------|
D |-----------------------------------------|
A |-----------------------------------------|
E |-----------------------------------------|
                ... You had it all...(alll)




==Chorus=====================================

           A
If I could spark like a fire but be as calming as matches

            E
Then I would rule like a lion and just go off like a cannon

        A
I could kill like a tiger and push away all the feeling

           E
But I wont run like a coward or go away with the season

           A
If I could shine like a diamond but live alone on the streets

          E                                               A   E
I'd be my best as a lover and be as cool as a theif could be

           A     E
You had it all, (alll) X3


==Outro======================================

     A      E                 A       E
e |-----------------------------------------|
B |-----------------------------------------|
G#|-----------------------------------------|
D |-----------------------------------------|
A |-----------------------------------------|
E |-----------------------------------------|

    A                                 E

e |-----0-----0-----0-----0-----0-------0-----0-----0-----0-----0-----|
B |---0-----0---0-----0-----0-----0-------0-----0-----0-----0-----0---|
G#|-1-----1-------1-----1-----1-------0-----0-----0-----0-----0-----0-|
D |-------------------------------------------------------------------|
A |-------------------------------------------------------------------|
E |-------------------------------------------------------------------|
   Had to come from somewhere to be here


e |-0------0------0-----0-----0--------0------0------0-----0-----0-----0-|
B |-0-0----0-0----0-0-----0-----0---0--5-5----0-0----9-0-----0-----0-----|
G#|-0---0--1---0--3---0-----0-----0----5---5--7---0--8---0-----0-----0---|
D |-2------2------4--------------------7------9------9-------------------|
A |----------------------------------------------------------------------|
E |----------------------------------------------------------------------|

e |-0------0------0-----0-----0--------0------0------0-|
B |-0-0----0-0----0-0-----0-----0---0--5-5----0-0----9-|
G#|-0---0--1---0--3---0-----0-----0----5---5--7---0--8-|
D |-2------2------4--------------------7------9------9-|
A |----------------------------------------------------|
E |----------------------------------------------------|


The End, hope this helps!
Comments