Acdc - Shake Your Foundations Chords & Tabs

 

Shake Your Foundations Chords & Tabs

Acdc Chords & Tabs

Version: 1 Type: Tab 1 rating
1 star 2 stars 3 stars 4 stars 5 stars
comments

Shake Your Foundations Tab

SHAKE YOUR FOUNDATIONS
by AC/DC
Main Riff
E|-------------------------------------------------------------  
B|--8-----8------10-------10-------8-----10-------10-------6~~~  
G|--7-----7------7--------7--------7-----7--------7--------7~~~  
D|-----0------0-----0--0-----0--0-----0-----0--0-----0--0------  
A|-------------------------------------------------------------  
E|-------------------------------------------------------------  

  -----------3-----------------------3---|
  -----5-----3-----------6-----5-----3---|
  -----5-----0-----------7-----5-----0---|
  --0-----0-----------0-----0-----0------|
  ---------------------------------------|
  ---------------------------------------|


Solo fill
E--------------------------------------------------------------|
B----13b~~~13b~~~\----13b~~~13b~~~~-6-6-5-6-------6-6-5-6------|
G----14b~~~14b~~~\----14b~~~14b~~~~-7-7-5-7--7\---7-7-5-7--7\--|
D--0--------------------------------0--------5\------------5\--|
A--------------------------------------------------------------|
E--------------------------------------------------------------|


Bit at the end of the riff
	E|--------------3---------------3----------|
	B|---/6~~-5-----3-----/6~~-5----3----------|
	G|---/7~~-5-----0-----/7~~-5----0----------|
	D|------0----0--0--------0---0--0----------|
	A|-----------------------------------------|
	E|--------------3---------------3----------|
"around tonight"


chorus
E|-------3----|-------------|-------3-----------3---|
B|--3----3----|-------------|--3----3---6---5---3---|
G|--2----0----|-------------|--2----0---7---5---0---|
D|--0----0----|-------------|--0----0-----0-----0---|
A|------------|-------------|-------2---------------|
E|-------3----|-------------|-------3---------------| repeat


Do the solo fill again, and back to riff

[ Tab from: http://www.guitartabs.cc/tabs/a/acdc/shake_your_foundations_tab.html ]
solo                                       trill
E|------|---------------------------------|-------|-------|-------|-------|
B|------|---------------------------------|-------|-------|-------|-------|
G|--x\--|-14b-14b-12-11--14b-14b-12-11----|--5^0--|--7^0--|--5^0--|--7^0--|
D|--x\--|---------------------------------|-------|-------|-------|-------|
A|--x\--|---------------------------------|-------|-------|-------|-------|
E|------|---------------------------------|-------|-------|-------|-------|

|------------------17^-15-14---12---12-----12--12----12----15/17b-|
|------------------------------15b--13~~---15--13~~-----15--------|
|--14b-r-12-11----------------------------------------------------|
|-----------------------------------------------------------------|
|-----------------------------------------------------------------|
|-----------------------------------------------------------------|


solo 2
E|------------||-------------12-------------------15---15--17b-----------------15----------|
B|------------||---15-12-15b----12----------15-17---17---17--------15-12-15-12----12-------|
G|---7-5-7----||--------------------------14-----------------------------------------------|
D|------------||---------------------------------------------------------------------------|
A|------------||---------------------------------------------------------------------------|
E|------------||---------------------------------------------------------------------------|
           shake...
E|--15-b------12^15/17--------14----14----14--15b-15b-15b-12-15b----15-12-15-12-15\--------|
B|-------12^15-------------15----15----15--------------------------------------------------|
G|-----------------------------------------------------------------------------------------|
D|-----------------------------------------------------------------------------------------|
A|-----------------------------------------------------------------------------------------|
E|-----------------------------------------------------------------------------------------|

E|-/21-19-18-15----------------13----13-----15b-15b-15b-15b-15b---22b--12--15~~~~~~~~\-----|
B|---------------12-15~~---15b----15b---15b---------------------------------------------3--|
G|--------------------------------------------------------------------------------------2--|
D|--------------------------------------------------------------------------------------0--|
A|-----------------------------------------------------------------------------------------|
E|-----------------------------------------------------------------------------------------|

Comments