Acceptance - Take Cover Acoustic Chords & Tabs

 

Take Cover Acoustic Chords & Tabs

Acceptance Chords & Tabs

Version: 1 Type: Tab 0 ratings
1 star 2 stars 3 stars 4 stars 5 stars
comments

Take Cover Acoustic Tab

   
-------------------------------------------------------------------------------
			     Take Cover Acoustic - Acceptance
-------------------------------------------------------------------------------
Tabbed by:Manning
Email:Manning677@aol.com

Tuning: dropped d 1/2 step down (Db,Ab,Db,Gb,Bb,Eb)

verse I
eb|----------------------------------------------------|
Bb|----(8)---------------------------------------------|
Gb|-(9)-9--------9-------------------------------------|
Db|--10-------10---------------------------------------|
Ab|-8--8-----0--0--------------------------------------|
Db|----------------------------------------------------|

pre chorus I               Chorus I  
eb|-----------|-----------|-------------------------------------------------------|
Bb|----3----3-|-----------|-------------------------------------------------------|
Gb|--2---2----|-2--2------|-------------------------------------------------------|
Db|---3---3---|---3-------|--------05---7--05--03--5--7--05--0--------------------|
Ab|-----------|-------223-|--------05---7--05--03--5--7--05--0--------------------|
Db|0----------|-------223-|--------05---7--05--03--5--7--05--0--------------------|

[ Tab from: http://www.guitartabs.cc/tabs/a/acceptance/take_cover_acoustic_tab.html ]
transition verse II
eb|-----------------|--------3-|--------|-----------------------------------------|
Bb|--1-0--1---1-----|----1-----|-0-1----|-----------------------------------------|
Gb|-2---2----2--2-2-|---2--2---|--2-2-2:|-----------------------------------------|
Db|3-----3----3--3--|--2----2--|-----2--|-----------------------------------------|
Ab|-----------------|-0--------|--------|-----------------------------------------|
Db|-----------------|----------|--------|-----------------------------------------|
pre chorus II
eb|---1---0---------0--|----------------------------------------------------------|
Bb|------------3-------|----------------------------------------------------------|
Gb|-2---2---2----2-----|----------------------------------------------------------|
Db|--3---3---3----3----|-3--------------------------------------------------------|
Ab|--------------------|-3--02-3--------------------------------------------------|
Db|-0------------------|-3--02-3--------------------------------------------------|

chorus II
eb|---------------------------------------------------------------------------|
Bb|---------------------------------------------------------------------------|
Gb|---------------------------------------------------------------------------|
Db|--3--5--7--5--3--23--8-----------------------------------------------------|
Ab|--3--5--7--5--3--23--8-----------------------------------------------------|
Db|--3--5--7--5--3--23--8-----------------------------------------------------|

bridge
eb|-----------|----------------------------------------------------------------|
Bb|-----------|----------------------------------------------------------------|
Gb|-----------|----------------------------------------------------------------|
Db|-8--0--3---|--8-------------------------------------------------------------|
Ab|-8--0--3---|--8-------------------------------------------------------------|
Db|-8--0--3---|--8-------------------------------------------------------------|

end chorus
eb|---------------------------------------------------------------------------|
Bb|---------------------------------------------------------------------------|
Gb|---------------------------------------------------------------------------|
Db|-23--5--7--5---23----------------------------------------------------------|
Ab|-23--5--7--5---23----------------------------------------------------------|
Db|-23--5--7--5---23----------------------------------------------------------|


===============================================================================
Comments