Accept - Restless And Wild Chords & Tabs

 

Restless And Wild Chords & Tabs

Accept Chords & Tabs

Version: 2 Type: Tab 0 ratings
1 star 2 stars 3 stars 4 stars 5 stars
comments

Restless And Wild Tab

Song:  Restless & Wild
Band:  ACCEPT
Album: Restless & Wild (1982)

Tabbed by Steve Begin (sbegin@hankermetal.com)


Intro:                        4 times
E |----------------------------------|
B |----------------------------------|
G |o--------------------------------o|
D |o--------------------------------o|
A |----------------------------------|
E |--0--0-0-0---0-0-0---0-0-0---0-0--|
     PM_____________________________|


E |----------------------|---------|-----------------------|-----------|
B |----------------------|---------|-----------------------|-----------|
G |o-7--9--------------7-|-------5-|-7---9---------------7-|----------o|
D |o-7--9--------------7-|-------5-|-7---9---------------7-|-----7-7--o|
A |--5--7--------------5-|-------3-|-5---7---------------5-|-----7-7---|
E |-------0-0-0--0-0-0---|---0-0---|-------0-0-0---0-0-0---|---0-5-5---|
          PM on low E___________________________________________|


Verse 1:
E |------|----|------|----|
B |------|----|------|----|
G |o-----|----|------|----|
D |o-----|----|------|----|
A |------|----|-5----|----|
E |-3----|----|------|----|

E |----------------------|---------|-----------------------|-----------|
B |----------------------|---------|-----------------------|-----------|
G |--7--9--------------7-|-------5-|-7---9---------------7-|----------o|
D |--7--9--------------7-|-------5-|-7---9---------------7-|-----7-7--o|
A |--5--7--------------5-|-------3-|-5---7---------------5-|-----7-7---|
E |-------0-0-0--0-0-0---|---0-0---|-------0-0-0---0-0-0---|---0-5-5---|
          PM on low E___________________________________________|


PreChorus 1:
E |-------|------|-------|-------|------|------|
B |-------|------|-------|-------|------|------|
G |-------|------|-------|-------|------|------|
D |-10----|-10---|-7-9---|-7-9---|-10---|-10---|
A |-10----|-10---|-7-9---|-7-9---|-10---|-10---|
E |-8-----|-8----|-5-7---|-5-7---|-8----|-8----|


Chorus 1:
E |-----------------|------------|-----------------|------------|
B |-----------------|------------|-----------------|------------|
G |-----------------|-----5-5----|-----------------|------------|
D |-----------------|-----5-5----|-----------------|-----7-7----|
A |-7-5-7-7-5-7-7-5-|-7-7-3-3----|-7-5-7-7-5-7-7-5-|-7-7-7-7----|
E |-----------------|------------|-----------------|-----5-5----|

E |-----------------|------------|-----------------|-----------------|
B |-----------------|------------|-----------------|-----------------|
G |-----------------|-----5-5----|-----------------|-----------------|
D |-----------------|-----5-5----|-----------------|-----------------|
A |-7-5-7-7-5-7-7-5-|-7-7-3-3----|-7-5-7-7-5-7-7-5-|-7-6-5-----------|
E |-----------------|------------|-----------------|-------9-8-7-6-5-|



E |----------------------|---------|-----------------------|-----------|
B |--8--10-------------8-|-------6-|-8---10--------------8-|-----------|
G |o-7--9--------------7-|-------5-|-7---9---------------7-|-----7-7--o|
D |o-5--7--------------5-|-------3-|-5---7---------------5-|-----7-7--o|
A |-------0-0-0--0-0-0---|---0-0---|-------0-0-0---0-0-0---|---0-5-5---|
E |----------------------|---------|-----------------------|-----------|
          PM on A_______________________________________________|


Verse 2: Same as Verse 1
Prechorus 2: Same as Prechorus 1
Chorus 2: Same as Chorus 1

[ Tab from: http://www.guitartabs.cc/tabs/a/accept/restless_and_wild_tab_ver_2.html ]
Bridge:
E |-----|-------|-----|-----|-----|------------|-----|-----|
B |-----|---7---|-----|-----|-----|------------|-----|-----|
G |-4---|---6-7-|-9---|-----|-----|------------|-4---|-----|
D |-4---|---4-7-|-9---|-----|-7---|-7--7--7--7-|-4---|-----|
A |-2---|-----5-|-7---|-----|-7---|-5--4--5--4-|-2---|-----|
E |-----|-------|-----|-----|-5---|------------|-----|-----|

E |-----|-------|-----|-----|-----|------------|-----|-----|
B |-----|---7---|-----|-----|-----|------------|-----|-----|
G |-4---|---6-7-|-9---|-----|-----|------------|-----|-----|
D |-4---|---4-7-|-9---|-----|-7---|-7--7--7--7-|-5---|-7---|
A |-2---|-----5-|-7---|-----|-7---|-5--4--5--4-|-5---|-7---|
E |-----|-------|-----|-----|-5---|------------|-3---|-5---|


Solo (rhythm section):                                                3 times
E |------------------|-----------------|-----------------|------------------|
B |------------------|-----------------|-----------------|------------------|
G |o-4-------4-------|-4-------4-------|-----------------|---------------2-o|
D |o-4-------4-------|-4-------4-------|-2-------2-------|-4-------4-----2-o|
A |--2-2-2-2-2-2-2-2-|-2-2-2-2-2-2-2-2-|-2-------2-------|-4-------4-----0--|
E |------------------|-----------------|-0-0-0-0-0-0-0-0-|-2-2-2-2-2-2-2----|

E |------------------|-----------------|-----------------|-------------|
B |------------------|-----------------|-----------------|-------------|
G |o-4-------4-------|-4-------4-------|-----------------|-7--6--7--6--|
D |o-4-------4-------|-4-------4-------|-2-------2-------|-7--6--7--6--|
A |--2-2-2-2-2-2-2-2-|-2-2-2-2-2-2-2-2-|-2-------2-------|-5--4--5--4--|
E |------------------|-----------------|-0-0-0-0-0-0-0-0-|-------------|

E |-----|-------|----|----|----|----|
B |-----|-------|----|----|----|----|
G |-4---|-5--7--|-9--|----|----|----|
D |-4---|-5--7--|-9--|----|----|----|
A |-2---|-3--5--|-7--|----|----|----|
E |-----|-------|----|----|----|----|


Verse 3:
E |------|----|------|----|
B |------|----|------|----|
G |o-7---|----|------|----|
D |o-5---|----|------|----|
A |------|----|-5----|----|
E |------|----|------|----|

E |----------------------|---------|-----------------------|-----------|
B |----------------------|---------|-----------------------|-----------|
G |--7--9--------------7-|-------5-|-7---9---------------7-|----------o|
D |--7--9--------------7-|-------5-|-7---9---------------7-|-----7-7--o|
A |--5--7--------------5-|-------3-|-5---7---------------5-|-----7-7---|
E |-------0-0-0--0-0-0---|---0-0---|-------0-0-0---0-0-0---|---0-5-5---|
          PM on low E___________________________________________|

E |------|----|------|----|
B |------|----|------|----|
G |o-----|----|------|----|
D |o-----|----|------|----|
A |------|----|-5----|----|
E |--3---|----|------|----|

E |----------------------|---------|-----------------------|-----------|
B |----------------------|---------|-----------------------|-----------|
G |--7--9--------------7-|-------5-|-7---9---------------7-|----------o|
D |--7--9--------------7-|-------5-|-7---9---------------7-|-----7-7--o|
A |--5--7--------------5-|-------3-|-5---7---------------5-|-----7-7---|
E |-------0-0-0--0-0-0---|---0-0---|-------0-0-0---0-0-0---|---0-5-5---|
          PM on low E___________________________________________|


Prechorus 3: Same as Prechorus 1
Chorus 3: Same as Chorus 3

Outro:

E |----------------------|--------------------|-----|
B |--8--10-------------8-|--------------------|-----|
G |o-7--9--------------7-|-----7-9---7-9---12-|-9---|
D |o-5--7--------------5-|-----7-9---7-9---12-|-9---|
A |-------0-0-0--0-0-0---|-----5-7---5-7---10-|-7---|
E |----------------------|---0-----0-----0----|-----|
                            PM     PM    PM
Comments