Accept - No Time To Loose Chords & Tabs

 

No Time To Loose Chords & Tabs

Accept Chords & Tabs

Version: 1 Type: Tab 0 ratings
1 star 2 stars 3 stars 4 stars 5 stars
comments

No Time To Loose Tab

   
Band:  Accept
Album: Iím A Rebel
Song:  No Time To Loose

Version 1.0 - 28.09.2002

Transcribed By: Nazgul
Email:          Veno_m@wp.pl


.  - palm mute           /  - slide up to
\  - slide down to       ~  - vibrato
h  - hammer on           b  - Bend
p  - pull off            Suffixes for bend
t  - tap                 f  - full bend    h - half bend
ph - pinched harmonic    q  - quarter bend t - tap bend
*  - see comment         ^  - Hold bend    r release bend
x  - Stuccatto           ~  - vibrato bend
,  - slight palm mute    () - ghost note, sustained note
"  - tremolo note        <> - Trill

Tunning E B G D A E
[ Tab from: http://www.guitartabs.cc/tabs/a/accept/no_time_to_loose_tab.html ]
  Acoustic Riff						
E|---0--------3--------2--------0--------|---0----------------------------2--|
B|---------0--------0--------3--------1--|---------1----------3--------1--3--|
G|------0--------0--------2--------2-----|------2----------2--------0-----2--|
D|---------------------0-----------------|------------2/4-----------------0--|
A|------------------------------0--------|---0-------------------3-----------|
E|---0--------3--------------------------|-----------------------------------|
							|X2
 Heavy Rifff 1
E|------------------------------|
B|------------------------------|
G|---9--5----5--7--7--4--5------|
D|---9--5----5--7--7--4--5------|
A|---7--3----3--5--5--2--3------|
E|------------------------------|

   
E|-------------------------------------------------------|
B|-------------------------------------------------------|
G|--9--5-----------------12--7--14--9--14--10--12--5-----|
D|--9--5--5--4--2--0-----12--7--14--9--14--10--12--5-----|
A|--7--3--------------3--10--5--12--7--12---8--10--3-----|
E|-------------------------------------------------------|

  Solo (can somebody help me with this ?)
E|-------------------------------------------------------------------|
B|------------8--9--11--8--------------------------------------------|
G|------9^-----------------7/-9~-------------------------------------|
D|---9-----9---------------------------------------------------------|
A|-------------------------------------------------------------------|
E|-------------------------------------------------------------------|


      2:07
E|---------10--------------------------------------------------------|
B|-----12------10h12--11--10-----------------------------------------|
G|----------------------------12--9----------------------------------|
D|-----------------------------------9-------------------------------|
A|-------------------------------------------------------------------|
E|-------------------------------------------------------------------|
Comments