Accept - Monsterman Chords & Tabs

 

Monsterman Chords & Tabs

Accept Chords & Tabs

Version: 1 Type: Tab 0 ratings
1 star 2 stars 3 stars 4 stars 5 stars
comments

Monsterman Tab

   
----------------------------------------------------------------------------
			     MONSTERMAN - Accept
----------------------------------------------------------------------------
Tabbed by: Benjamin Gheysels
Date: 2005-8-6
Album: Russian roulette

Tuning: standard tuning

| h  hammer-on
| p  pull-off
| ~  vibrato
| b  bend
| .  mute note
| ps pick scrape


Play with distortion

Riff 1:
e|--------------------------------------------------------------------------|
B|--------------------------------------------------------------------------|
G|--5---5-----------5-5---7--------5---5------------5-5-----7---------------|
D|--3p0-3p0-0-0-0-0-3-3-0-5-5------3p0-3p0-5-7------3-3-0-5-5---------------|
A|--------------------------3--------------3-5------------3-----------------|
E|--------------------------------------------------------------------------|
            . . . .           

e|--------------------------------------------------------------------------|
B|--------------------------------------------------------------------------|
G|--5---5-----------5-5---7--------5---5-------------5-5------7-------------|
D|--3p0-3p0-0-0-0-0-3-3-0-5-5------3p0-3p0-0-0-0-0-0-3-3-0-5--5-------------|
A|--------------------------3------------------------------3----------------|
E|--------------------------------------------------------------------------|
            . . . .                       . . . . .


Riff 2 (13"): repeat 4 times
e|--------------------------------------------------------------------------|
B|--------------------------------------------------------------------------|
G|--5---5-----------5-5-----------5---5-------------5-5---5-----------------|
D|--3p0-3p0-0-0-0-0-3-3-0-5/7-----3p0-3p0-0-0-0-0-0-3-3-0-3p0---------------|
A|------------------------3/5-----------------------------------------------|
E|--------------------------------------------------------------------------|
            . . . .                       . . . . .


Riff 3 (39"): guitar 2 plays Riff 4 as background
e|--------------------------|-----------------------------------------------|
B|--------------------------|-----------------------------------------------|
G|--------------------------|-----------------------------------------------|
D|---1/3-3-3--2-3-5--2------|---3-3-3--2-3-5--2-----5-5---5-----------------|
A|--------------------------|-----------------------3-3p0-3stop-------------|
E|--------------------------|-----------------------------------------------|

[ Tab from: http://www.guitartabs.cc/tabs/a/accept/monsterman_tab.html ]
Riff 4:
e|--------------------------------------------------------------------------|
B|--------------------------------------------------------------------------|
G|--------------------------------------------------------------------------|
D|---8-------7-------8------7---5-5---5-------------------------------------|
A|---8-------7-------8------7---3-3p0-3stop---------------------------------|
E|---6-------5-------6------5-----------------------------------------------|


Riff 5 (52"):
e|--------------------------------------------------------------------------|
B|--------------------------------------------------------------------------|
G|--------------------------------------------------------------------------|
D|---7-------3-----3-3---3-5-------7------3------3-3------------------------|
A|---5-------1-----1-1p0-1-3-------5------1------1-1------------------------|
E|--------------------------------------------------------------------------|


Riff 2 (1'05"): play twice

Riff 3 + Riff 4 (1'18): only play last part

Riff 5 (1'24")

Riff 6 (1'37"):
e|--------------------------------------------------------------------------|
B|--------------------------------------------------------------------------|
G|--------------------------------------------------------------------------|
D|---7------5-7-------5-5--7------5-7---------5-5-5-------------------------|
A|---5stop--3-5stop---3-3--5stop--3-5stop-----3-3-3-------------------------|
E|--------------------------------------------------------------------------|


Solo (1'44"): play Riff 7 as background (4 times)
Riff 7
e|--------------------------------------------------------------------------|
B|--------------------------------------------------------------------------|
G|--------------------------------------------------------------------------|
D|---7------3---------------------------------------------------------------|
A|---5------1---------------------------------------------------------------|
E|--------------------------------------------------------------------------|


Riff 1' (2'10"): play this twice
e|--------------------------------------------------------------------------|
B|--------------------------------------------------------------------------|
G|--5---5-----------5-5---7--------5---5-------------5-5------7-------------|
D|--3p0-3p0-0-0-0-0-3-3-0-5-5------3p0-3p0-0-0-0-0-0-3-3-0-5--5-------------|
A|--------------------------3------------------------------3----------------|
E|--------------------------------------------------------------------------|
            . . . .                       . . . . .


Riff 7 (2'23") + Riff 1': play till end


That's it! Enjoy!

============================================================================

============================================================================
Comments