Accept - Head Over Heels Chords & Tabs

 

Head Over Heels Chords & Tabs

Accept Chords & Tabs

Version: 2 Type: Tab 0 ratings
1 star 2 stars 3 stars 4 stars 5 stars
comments

Head Over Heels Tab

   
Band:  Accept	
Album: Restless And Wild
Song:  Head Over Heels


Transcribed By: Nazgul
Email:          Veno_m@wp.pl


.  - palm mute           /  - slide up to
\  - slide down to       ~  - vibrato
h  - hammer on           b  - Bend
p  - pull off            Suffixes for bend
t  - tap                 f  - full bend    h - half bend
ph - pinched harmonic    q  - quarter bend t - tap bend
*  - see comment         ^  - Hold bend    r release bend
x  - Stuccatto           ~  - vibrato bend
,  - slight palm mute    () - ghost note, sustained note
"  - tremolo note        <> - Trill

Tunning E B G D A E
Accept  Head Over Heels

 Intro solo

E|----14----------12--15--14-----|-12-|-19-|
B|--------15--12--------------15-|----|----|
G|-------------------------------|----|----|
D|-------------------------------|----|----|
A|-------------------------------|----|----|
E|-------------------------------|----|----|

 Verse Riff
E|---------------------------------------------------------------------|
B|---------------------------------------------------------------------|
G|---------------------------------------------------------------------|
D|----------7-------6-----------6-------------7-------6------------6---|
A|--4---4-4-----4-4-----4-4-7-------4---4-4-------4-4-----4-4-7--------|
E|---------------------------------------------------------------------| 
[ Tab from: http://www.guitartabs.cc/tabs/a/accept/head_over_heels_tab_ver_2.html ]
E|--------------------------------------------------------------------|
B|--------------------------------------------------------------------|
G|--------------------------------------------------------------------|
D|----------2---------------4---0-----------7-------6-------6-4-------|
A|--0---0-0-----0-0-2---2-2---------4---4-4-----4-4-------------7-6---|
E|------------------------------------------------------4-------------|
  2:38
E|-------------------------------------------------------------------|
B|-------------------------------------------------------------------|
G|-------------------------------------------11--13--14--13-13\11---|
D|---6--7--6-7~---15^--14-13h14--11----11--------------------------|
A|-------------------------------------------------------------------|
E|-------------------------------------------------------------------|


E|-------------------------------------------------------------------|
B|--14---------------------------------------------------------------|
G|------15p14--13h14--11---------------------------------------------|
D|----------------------------12--1314^--14^--14--12--15--11--------|
A|-------------------------------------------------------------------|
E|-------------------------------------------------------------------|


E|-------------------------------------------------------------------|
B|-------------------------------------------------------------------|
G|-------------------------------------------------------------------|
D|---------9---------------------------------------------------------|
A|--9--11-----13-----------------------------------------------------|
E|-------------------------------------------------------------------|
Comments