Accept - Head Over Heels Chords & Tabs

 

Head Over Heels Chords & Tabs

Accept Chords & Tabs

Version: 1 Type: Tab 0 ratings
1 star 2 stars 3 stars 4 stars 5 stars
comments

Head Over Heels Tab

   
                                Head over heels                                 


                                                                          Accept
Solo guitar
Tabbed by Shendrik Evgeny



   Intro:                                                              
E||------------------|------------------|-----------------------|
B||------------------|------------------|--7------------5----5--|
G||------------------|------------------|-------7--4------------|
D||------------------|------------------|-----------------------|
A||------------------|------------------|-----------------------|
E||------------------|------------------|-----------------------|


                                                                    
---------------------|-----------------------|----------7----------|
--7-------5----------|--7------------5----5--|--7------------------|
-------7-------------|-------7--4------------|-------7-------------|
---------------------|-----------------------|---------------------|
---------------------|-----------------------|---------------------|
---------------------|-----------------------|---------------------|


                                                                      
-----------------------|---------------------|-----------------------|
--7------------5----5--|--7-------5----------|--7------------5----5--|
-------7--4------------|-------7-------------|-------7--4------------|
-----------------------|---------------------|-----------------------|
-----------------------|---------------------|-----------------------|
-----------------------|---------------------|-----------------------|


                                                    
---------------------|-----------------------------|
--7------------------|-----------------------------|
-------7-------------|-----------------------------|
----------7----------|---------7------6---------6--|
----------7----------|--4--4-4----4-4----4-4-7-----|
----------5----------|-----------------------------|


                                                            
-----------------------------|-----------------------------|
-----------------------------|-----------------------------|
-----------------------------|-----------------------------|
---------7------6---------6--|---------2------4------4--0--|
--4--4-4----4-4----4-4-7-----|--0--0-0----0-0-2--2-2-------|
-----------------------------|-----------------------------|


                               Verse 1:                              
------------------------------|-----------------------------|
------------------------------|-----------------------------|
------------------------------|-----------------------------|
---------7------6-----6-4-----|---------7------6---------6--|
--4--4-4----4-4-----------7-6-|--4--4-4----4-4----4-4-7-----|
-------------------4----------|-----------------------------|


                                                            
-----------------------------|-----------------------------|
-----------------------------|-----------------------------|
-----------------------------|-----------------------------|
---------7------6---------6--|---------4-------------4--0--|
--4--4-4----4-4----4-4-7-----|--2--2-2----2-2-2--2-2-------|
-----------------------------|-----------------------------|


                                                             
------------------------------|-----------------------------|
------------------------------|-----------------------------|
------------------------------|-----------------------------|
---------7------6-----6-4-----|---------7------6---------6--|
--4--4-4----4-4-----------7-6-|--4--4-4----4-4----4-4-7-----|
-------------------4----------|-----------------------------|


                                                            
-----------------------------|-----------------------------|
-----------------------------|-----------------------------|
-----------------------------|-----------------------------|
---------7------6---------6--|---------4-------------4--0--|
--4--4-4----4-4----4-4-7-----|--2--2-2----2-2-2--2-2-------|
-----------------------------|-----------------------------|


                               Pre-chorus:                                             
------------------------------|----------------------|---------------------|
------------------------------|----------------------|---------------------|
------------------------------|----------------------|---------------------|
---------7------6-------------|--4------4------------|----6--4--6----------|
--4--4-4----4-4---------------|--2------2------2h-0--|----4--2--4----------|
-------------------4--5-4-5-4-|----------------------|---------------------|


                                                                          
--------------------|-----------------------------|----------------------|
--------------------|-----------------------------|----------------------|
--------------------|-----------------------------|----------------------|
--4------4----------|---------7------6---------6--|--4------4------------|
--2------2----------|--4--4-4----4-4----4-4-7-----|--2------2------2h-0--|
--------------------|-----------------------------|----------------------|


                                                               
----------------------|-------------------|-------------------|
----------------------|-------------------|-------------------|
----------------------|-------------------|-------------------|
----6--4--6------4----|--2----------------|--4----------------|
----4--2--4------2----|--0----------------|--2----------------|
----------------------|-------------------|-------------------|


Chorus:                                                                          
------------------------|------------------------|------------------------|
------------------------|------------------------|------------------------|
--6--------------4------|--2--------------2------|--4--------------4------|
--6----------x-x-4--x-x-|--2----------x-x-2--x-x-|--4----------x-x-4--x-x-|
--4----------2-2-2--0-0-|--0----------0-0-0--0-0-|--2----------2-2-2--2-2-|
------------------------|------------------------|------------------------|


                                                                      
-------------------|------------------------|------------------------|
-------------------|------------------------|------------------------|
--6----------------|--6--------------4------|--2--------------2------|
--6----------------|--6----------x-x-4--x-x-|--2----------x-x-2--x-x-|
--4----------------|--4----------2-2-2--0-0-|--0----------0-0-0--0-0-|
-------------------|------------------------|------------------------|


                    Interlude:                                                          
-------------------|------------------------------|--------------------------|
-------------------|------------------------------|--------------------------|
--4----------------|------------------------------|--------------------------|
--4----------------|---------7------6-----6-4-----|--------------------------|
--2----------------|--4--4-4----4-4-----------7-6-|--9-------------7----9h10-|
-------------------|-------------------4----------|-------10--7--------------|


                                                                            
-------------------------|--------------------------|----------------------|
-------------------------|--------------------------|----------------------|
-------------------------|--------------------------|----------------------|
--------------------2----|--------------------------|-----------7----------|
--9--------7--------2----|--9-------------7----9h10-|--9-------------------|
-------10-------0-0-0----|-------10--7--------------|-------10-------------|


                                                                                
--------------------------|-------------------------|--------------------------|
--------------------------|-------------------------|--------------------------|
--------------------------|-------------------------|--------------------------|
--------------------------|--------------------2----|--------------------------|
--9-------------7----9h10-|--9--------7--------2----|--9-------------7----9h10-|
-------10--7--------------|-------10-------0-0-0----|-------10--7--------------|


                       Verse 2:                              
----------------------|-----------------------------|
----------------------|-----------------------------|
----------------------|-----------------------------|
-----------7----------|---------7------6---------6--|
--9--------7----------|--4--4-4----4-4----4-4-7-----|
-------10--5----------|-----------------------------|


                                                            
-----------------------------|-----------------------------|
-----------------------------|-----------------------------|
-----------------------------|-----------------------------|
---------7------6---------6--|---------4-------------4--0--|
--4--4-4----4-4----4-4-7-----|--2--2-2----2-2-2--2-2-------|
-----------------------------|-----------------------------|

[ Tab from: http://www.guitartabs.cc/tabs/a/accept/head_over_heels_tab.html ]
                                                             
------------------------------|-----------------------------|
------------------------------|-----------------------------|
------------------------------|-----------------------------|
---------7------6-----6-4-----|---------7------6---------6--|
--4--4-4----4-4-----------7-6-|--4--4-4----4-4----4-4-7-----|
-------------------4----------|-----------------------------|


                                                            
-----------------------------|-----------------------------|
-----------------------------|-----------------------------|
-----------------------------|-----------------------------|
---------7------6---------6--|---------4-------------4--0--|
--4--4-4----4-4----4-4-7-----|--2--2-2----2-2-2--2-2-------|
-----------------------------|-----------------------------|


                               Pre-chorus 2:                                           
------------------------------|--------------------|---------------------|
------------------------------|--------------------|---------------------|
------------------------------|--------------------|---------------------|
---------7------6-------------|--2------2----------|----6--4--6----------|
--4--4-4----4-4---------------|--0------0----------|----4--2--4----------|
-------------------4--5-4-5-4-|--------------------|---------------------|


                                        Chorus:                         
-------------------|-------------------|------------------------|
-------------------|-------------------|------------------------|
-------------------|-------------------|--6--------------4------|
--2----------------|--4----------------|--6----------x-x-4--x-x-|
--0----------------|--2----------------|--4----------2-2-2--0-0-|
-------------------|-------------------|------------------------|


                                                                      
------------------------|------------------------|-------------------|
------------------------|------------------------|-------------------|
--2--------------2------|--4--------------4------|--6----------------|
--2----------x-x-2--x-x-|--4----------x-x-4--x-x-|--6----------------|
--0----------0-0-0--0-0-|--2----------2-2-2--2-2-|--4----------------|
------------------------|------------------------|-------------------|


                                                                      
------------------------|------------------------|-------------------|
------------------------|------------------------|-------------------|
--6--------------4------|--2--------------2------|--4----------------|
--6----------x-x-4--x-x-|--2----------x-x-2--x-x-|--4----------------|
--4----------2-2-2--0-0-|--0----------0-0-0--0-0-|--2----------------|
------------------------|------------------------|-------------------|


Pre-solo:                                                            
-----------------------------|-----------------------------|
-----------------------------|-----------------------------|
-----------------------------|-----------------------------|
-----------------------------|-----------------------------|
---------7------6---------6--|---------7------6---------6--|
--4--4-4----4-4----4-4-7-----|--4--4-4----4-4----4-4-7-----|


                                                                                
------------------------------|------------------------------|-----------------|
------------------------------|------------------------------|-----------------|
------------------------------|------------------------------|-----------------|
------------------------------|------------------------------|-------------4-6-|
---------7------6---------4-6-|--7--6-4----4-6-7--6-4----4-6-|--7--6-4-6-7-----|
--4--4-4----4-4----4-4-7------|---------4-------------5------|-----------------|


Solo:F#                 C#                         E                                      
-----------------------|--------------------------|----------------------------|
---------------7----5--|--4h5----------7-9-10--9--|--10-9-9--------12b---12-10-|
--2---1-2--------------|------6-------------------|----------------------------|
-----------------------|--------------------------|----------------------------|
-----------------------|--------------------------|----------------------------|
-----------------------|--------------------------|----------------------------|


F#                             D                            
------------------------------|-------------------------|
--9h10-7--------7-7-7--7h5h7--|--3------3-5-5b---5b-3-5-|
------------------------------|-------------------------|
------------------------------|-------------------------|
------------------------------|-------------------------|
------------------------------|-------------------------|


C#                                                               
---------------------------|----------------------------------|
--7--2---------------------|----------------------------------|
---------------6h7h6---9-7-|--9-7-6---7h6-----6---------------|
---------------------9-----|--------9-----9-7---9-7-6-9-7-6-7-|
---------------------------|----------------------------------|
---------------------------|----------------------------------|


                                    F#                        
-----------------------------------|-----------------------|
----------7-9-10-9-10--13b-13b-13b-|--13b---------10-7-----|
----6-7-9--------------------------|-----------------------|
--9--------------------------------|-----------------------|
-----------------------------------|-----------------------|
-----------------------------------|-----------------------|


E                       D                        C#                               
--------------5b-------|--5b---------5----------|----------------------------|
--5-7-----5-7----------|------------------5h7h5-|----------------------------|
-----------------------|------------------------|--6------6h7h6h4-6------6-6-|
-----------------------|------------------------|----------------------------|
-----------------------|------------------------|----------------------------|
-----------------------|------------------------|----------------------------|


                                                               
------------------------------|---------7-----9--7h9h7--------|
--7-------------9-------------|--10--------------------10--9--|
-----6-6-6--6-6----6-6-6--6-6-|------6-----6------------------|
------------------------------|-------------------------------|
------------------------------|-------------------------------|
------------------------------|-------------------------------|


                            B         B              
---------------------------|----------------------|
--10--7--------------------|----------------------|
---------6/-7--------------|--4----4--4----4------|
---------------9/-7--6--7--|----------------------|
---------------------------|----------------------|
---------------------------|----------------------|


C#        B        C#          B          B            C#                              
------------------------------|-----------------------|----------------------|
----2--2h3h2h3h2-2------------|-----------------------|----------------------|
------------------------1--2--|--4------4----2--1--2--|--1-------------1--2--|
------------------------------|-----------------------|-------------4--------|
------------------------------|-----------------------|----------------------|
------------------------------|-----------------------|----------------------|


B         B             C#      B     C#     B        
-----------------------|----------------------|
-----------------------|----9--7--9------7----|
--4------4----2--1--2--|----------------------|
-----------------------|----------------------|
-----------------------|----------------------|
-----------------------|----------------------|


                                                                   
--------------------------7-----------|---------------------------|
------------7-10-9-7---10---10-9-7-10-|--9-7---7------------------|
--9-8-6-8-9----------9----------------|------9---9-8-6-5-6~-------|
--------------------------------------|---------------------------|
--------------------------------------|---------------------------|
--------------------------------------|---------------------------|


Chorus:                                                                           
------------------------|------------------------|------------------------|
------------------------|------------------------|------------------------|
--6--------------4------|--2--------------2------|--4--------------4------|
--6----------x-x-4--x-x-|--2----------x-x-2--x-x-|--4----------x-x-4--x-x-|
--4----------2-2-2--0-0-|--0----------0-0-0--0-0-|--2----------2-2-2--2-2-|
------------------------|------------------------|------------------------|


                                                                      
-------------------|------------------------|------------------------|
-------------------|------------------------|------------------------|
--6----------------|--6--------------4------|--2--------------2------|
--6----------------|--6----------x-x-4--x-x-|--2----------x-x-2--x-x-|
--4----------------|--4----------2-2-2--0-0-|--0----------0-0-0--0-0-|
-------------------|------------------------|------------------------|


                                              
------------------------|-------------------||
------------------------|-------------------||
--4--------------4------|--6----------------||
--4----------x-x-4--x-x-|--6----------------||
--2----------2-2-2--2-2-|--4----------------||
------------------------|-------------------||


Comments