Accept - Balls To The Wall Chords & Tabs

 

Balls To The Wall Chords & Tabs

Accept Chords & Tabs

Version: 3 Type: Tab 0 ratings
1 star 2 stars 3 stars 4 stars 5 stars
comments

Balls To The Wall Tab

I looked at the tab for this song on here and I beg to differ from its content.
Here is how I play the song:

Intro - One Guitar
--------------------|-------------------|
--------------------|-------------------|
--------------------|-------------------|
--4--2--0--2--------|--4--2--0----------|
--4--2--0--2--------|--4--2--0----------|
--------------0--0--|-----------0--0--0-|
[ Tab from: http://www.guitartabs.cc/tabs/a/accept/balls_to_the_wall_tab_ver_3.html ]
--------------------|-------------------|
--------------------|-------------------|
--------------------|-------------------|
--4--2--0--2--------|--5-----5---6---7--|
--4--2--0--2--------|--5-----5---6---7--|
--------------0--0--|-------------------|

Two Guitars and Drums
--------------------|-------------------|
--------------------|-------------------|
--------------------|-------------------|
--4--2--0--2--------|--4--2--0----------|
--4--2--0--2--------|--4--2--0----------|
--------------0--0--|-----------0--0--0-|

--------------------|-------------------|
--------------------|-------------------|
--------------------|-------------------|
--4--2--0--2--------|--5-----5---6---7--|
--4--2--0--2--------|--5-----5---6---7--|
--------------0--0--|-------------------|

Repeat from the begging to &&& the whole band except signer enters on repeat
Comments