Acab - We Are The Skin Chords & Tabs

 

We Are The Skin Chords & Tabs

Acab Chords & Tabs

Version: 1 Type: Tab 0 ratings
1 star 2 stars 3 stars 4 stars 5 stars
comments

We Are The Skin Tab

   
Artist : A.C.A.B.
Title  : We Are The Skin
Transcribed by : Saiful Izwan
Email : maxer89@yahoo.com

Please send comments... Also, i would like to hear latest news about A.c.A.B.


Intro   
e||------------------------------------------------------------------------|
B||------------------------------------------------------------------------|
G||-----------7-7-7-7--9-9-9-9---------------------------------------------|
D||--7-7-7-7--7-7-7-7--9-9-9-9--7-7-7-7------------------------------------|
A||--7-7-7-7--5-5-5-5--7-7-7-7--7-7-7-7------------------------------------|
E||--5-5-5-5--------------------5-5-5-5------------------------------------|

verse
e||------------------------------------------------------------------------|
B||------------------------------------------------------------------------|
G||------------7-7-7-7-7---------------------------------------------------|
D||-4-4-4-4-4--7-7-7-7-7--2-2-2-2-2--7-7-7-7-7--7-6------------------------|
A||-4-4-4-4-4--5-5-5-5-5--2-2-2-2-2--7-7-7-7-7--7-6------------------------|
E||-2-2-2-2-2-------------0-0-0-0-0--5-5-5-5-5--5-4------------------------|
[ Tab from: http://www.guitartabs.cc/tabs/a/acab/we_are_the_skin_tab.html ]
e||------------------------------------------------------------------------|
B||------------------------------------------------------------------------|
G||------------7-7-7-7-7---------------------------------------------------|
D||-4-4-4-4-4--7-7-7-7-7--2-2-2-2-2--9-9-9-9-9-----------------------------|
A||-4-4-4-4-4--5-5-5-5-5--2-2-2-2-2--9-9-9-9-9-----------------------------|
E||-2-2-2-2-2-------------0-0-0-0-0--7-7-7-7-7-----------------------------|


chorus
e||------------------------------------------------------------------------|
B||------------------------------------------------------------------------|
G||-----------7-7-7-7--9-9-9-9---------------------------------------------|
D||--7-7-7-7--7-7-7-7--9-9-9-9--7-7-7-7------------------------------------|
A||--7-7-7-7--5-5-5-5--7-7-7-7--7-7-7-7------------------------------------|
E||--5-5-5-5--------------------5-5-5-5------------------------------------|

repeat verse
repeat chorus

solo
e||------------------------------------------------------------------------|
B||------------------------------------------------------------------------|
G||-----------------4-4\5---4------7-7-7-9-7-6-7-7-7--7-6-7-6-4-4--4-------|
D||-7-6-4-4-4-7-4-7-------7---7-4------------------------------------7-6-7-|
A||------------------------------------------------------------------------|
E||------------------------------------------------------------------------|
 

e||------------------------------------------------------------------------|
B||------------------------------------------------------------------------|
G||-----------------4-4\5---4-------7-7-7-9-7-6-7-7-7--7-6-7-6-4-4--4\9~---|
D||-7-6-4-4-4-7-4-7-------7---7-4------------------------------------------|
A||------------------------------------------------------------------------|
E||------------------------------------------------------------------------|

repeat chorus (8 times)
Comments