Acab - Streets Of Uptown Chords & Tabs

 

Streets Of Uptown Chords & Tabs

Acab Chords & Tabs

Version: 4 Type: Tab 0 ratings
1 star 2 stars 3 stars 4 stars 5 stars
comments

Streets Of Uptown Tab

Try to find if there's any mistakes!!!! 
i think this the real solo even this tab is different 
|-----------------------|---------------|------------------|
|-----------------------|----8----------|---8--------------|
|-------------7-9-7-----|------10-9-7-7-|-7---10-9-7-9--9--|
|--------7-9--------10--|-10------------|------------------|
|--8-10-----------------|---------------|------------------|
|-----------------------|---------------|------------------|

|----------------------------|-------------|---------------|
|----------------------------|-----------8-|-8-------------|
|-7-9-7---------7-9-7--------|----7-9-10---|---10-7-9-7--7-|
|-------10-7-10-------10-7---|-10----------|---------------|
|--------------------------8-|-------------|---------------|
|----------------------------|-------------|---------------|
[ Tab from: http://www.guitartabs.cc/tabs/a/acab/streets_of_uptown_tab_ver_4.html ]
|-------------------------------|---------------|------------------|
|-------------------------------|----8----------|---8--------------|
|---------------------7-9-7-----|------10-9-7-7-|-7---10-9-7-9--9--|
|--7-9-7-------7-9-10-------10--|-10------------|------------------|
|---------10-8------------------|---------------|------------------|
|-------------------------------|---------------|------------------|

|----------------------------|-------------|---------------|
|----------------------------|-----------8-|-8-------------|
|-7-9-7---------7-9-7--------|----7-9-10---|---10-7-9-7--7-|
|-------10-7-10-------10-7---|-10----------|---------------|
|--------------------------8-|-------------|---------------|
|----------------------------|-------------|---------------|

|--------------------------|
|--------------------------|
|-----------------7-9-7----|
|-7-9------7-9-10----------|
|-----10-8-----------------|
|--------------------------|

END
Comments