Acab - Skinhead For Life Chords & Tabs

 

Skinhead For Life Chords & Tabs

Acab Chords & Tabs

Version: 1 Type: Tab 0 ratings
1 star 2 stars 3 stars 4 stars 5 stars
comments

Skinhead For Life Tab

   
Intro:

|--------------------------------|-----------------------------------|
|--------------------------------|-----------------------------------|
|--------------------------------|-----------------------------------|
|--------------------------------|-----2--------2-----2--------2-3-2-|
|-----3--------3-----3--------3--|--3-----3--3-----3-----3--3--------|
|--5-----5--5-----5-----5--5-----|-----------------------------------|

          A5~                              C5~

|--------------------------------|------------------------------------------------------|
|--------------------------------|------------------------------------------------------|
|--------------------------------|------------------------------------------------------|
|--------------------------------|--------------------------------------------------7b--|
|-----2--------2-----2--------2--|-----3--------3------3------3--5--3--5--7---5--7------|
|--3-----3--3-----3-----3--3-----|--5-----5--5-----55-----55----------------------------|

         G5~                                A5~

Verse/chorus/solo:

A5,C5,G5,A5

Prechorus:

|-----------------|-----------------|-----------------|-----------------|
|-----------------|-----------------|-----------------|-----------------|
|-----------------|-----------------|-----------------|-----------------|
|-----------------|-----------------|-----3--------3--|-----------------|
|-----7--------7--|-----2--------2--|--5-----5--5-----|-----3--------3--|
|--8-----8--8-----|--3-----3--3-----|-----------------|--5-----5--5-----|

|-----------------|-----------------|-----------------|-----------------|
|-----------------|-----------------|-----------------|-----------------|
|-----------------|-----------------|-----------------|-----------------|
|-----------------|-----------------|-----------------|-----------------|
|-----7--------7--|-----2--------2--|-----3--------3--|-----3--------3--|
|--8-----8--8-----|--3-----3--3-----|--5-----5--5-----|--5-----5--5-----|
[ Tab from: http://www.guitartabs.cc/tabs/a/acab/skinhead_for_life_tab.html ]
     C5~                G5~                D5~                A5~

solo:

|----------------------------------------------------------------------------------------------------------------------------------------------------|
|----------------------------------------------------------------------------------------------------------------------------------------------------|
|------9bv--9bv--9bv--7--5--7--5----7--5--9--7--9--7--12bv--12bv--12bv--9--7--5--7bv--7bv--7bv--5--4--0--------5--4--------5--4----------------------|
|--7b----------------------------------------------------------------------------------------------------7--5--------7--5----------------------------|
|----------------------------------------------------------------------------------------------------------------------------------------------------|
|----------------------------------------------------------------------------------------------------------------------------------------------------|


|----------------------------------------------------------------------------------------------------------------------------------------------------|
|----------------------------------------------------------------------------------------------------------------------------------------------------|
|--------------5--7--9bv--9bv--9bv-9--7--5--4--0--12bv--12bv--12bv--9--7--5--7bv--7bv--7bv--5--4--0--------5--4--------5--4--------5--4--------------|
|--------5--7----------------------------------------------------------------------------------------7--5--------7--5--------7--5--------7--5--5--7--|
|--5--7----------------------------------------------------------------------------------------------------------------------------------------------|
|----------------------------------------------------------------------------------------------------------------------------------------------------|

b: bend
v: vibrate
~: strums
p: pull off

|---------------------|
|---------------------|
|------------------7--|
|--7----10----5----7--|
|--7----10----5----5--|
|--5----8-----3-------|

   A5   C5    G5   D5



Comments