Acab - Racial Hatred Chords & Tabs

 

Racial Hatred Chords & Tabs

Acab Chords & Tabs

Version: 2 Type: Tab 0 ratings
1 star 2 stars 3 stars 4 stars 5 stars
comments

Racial Hatred Tab

   
ACAB-Racial Hatred

Tabbed by:ErOsSkiN
Email:ad_redsamurai@hotmail.com
Tuning: standard


  INTRO-Play 4x
   Em             C5   G5  A5
e|---------------|---|---|----|
B|---------------|---|---|----|
G|---------------|---|---|----|
D|-2-2-2-2-2-2-2-|-5-|---|----|
A|-2-2-2-2-2-2-2-|-3-|-5-|-7--|
E|-0-0-0-0-0-0-0-|---|-3-|-5--|

  INTRO RIFF-Play 4x
   Em             C5   G5  A5
e|---------------|---|---|----|
B|---------------|---|---|----|
G|---------------|---|---|-5~-|
D|-2-2-2-2-2-2-2-|-5-|---|----|
A|-2-2-2-2-2-2-2-|-3-|-5-|----|
E|-0-0-0-0-0-0-0-|---|-3-|----|


  VERSE-Play 4x
   Em             C5   G5  A5
e|---------------|---|---|----|
B|---------------|---|---|----|
G|---------------|---|---|----|
D|-2-2-2-2-2-2-2-|-5-|---|----|
A|-2-2-2-2-2-2-2-|-3-|-5-|-7--|
E|-0-0-0-0-0-0-0-|---|-3-|-5--|
Racial hatred everywhere 
Lives are threatened and live in fear 
Some people just don't care 
See destruction and despair

  RIFF-Play 2x
   Em             C5   G5  A5
e|---------------|---|---|----|
B|---------------|---|---|----|
G|---------------|---|---|-5~-|
D|-2-2-2-2-2-2-2-|-5-|---|----|
A|-2-2-2-2-2-2-2-|-3-|-5-|----|
E|-0-0-0-0-0-0-0-|---|-3-|----|

  VERSE-Play 4x
   Em             C5   G5  A5
e|---------------|---|---|----|
B|---------------|---|---|----|
G|---------------|---|---|----|
D|-2-2-2-2-2-2-2-|-5-|---|----|
A|-2-2-2-2-2-2-2-|-3-|-5-|-7--|
E|-0-0-0-0-0-0-0-|---|-3-|-5--|
Don't you know you're just the same 
You're living in the same game 
There's nothing to judge by the colour 
And nothing to win by hating each other
[ Tab from: http://www.guitartabs.cc/tabs/a/acab/racial_hatred_tab_ver_2.html ]
  CHORUS-Play 4x
        G5              E5         D5       C5              E5
e|---------------|---------------|---|---------------|---------------|
B|---------------|---------------|---|---------------|---------------|
G|---------------|---------------|---|---------------|---------------|
D|---------------|-9-9-9-9-9-9-9-|-7-|-5-5-5-5-5-5-5-|-9-9-9-9-9-9-9-|
A|-5-5-5-5-5-5-5-|-7-7-7-7-7-7-7-|-5-|-3-3-3-3-3-3-3-|-7-7-7-7-7-7-7-|
E|-3-3-3-3-3-3-3-|---------------|---|---------------|---------------|
So yellow, brown, black and white 
Stop racial hatred and start to unite

  RIFF-Play 4x
   Em             C5   G5  A5
e|---------------|---|---|----|
B|---------------|---|---|----|
G|---------------|---|---|-5~-|
D|-2-2-2-2-2-2-2-|-5-|---|----|
A|-2-2-2-2-2-2-2-|-3-|-5-|----|
E|-0-0-0-0-0-0-0-|---|-3-|----|

  VERSE-Play 4x
   Em             C5   G5  A5
e|---------------|---|---|----|
B|---------------|---|---|----|
G|---------------|---|---|----|
D|-2-2-2-2-2-2-2-|-5-|---|----|
A|-2-2-2-2-2-2-2-|-3-|-5-|-7--|
E|-0-0-0-0-0-0-0-|---|-3-|-5--|
Racial hatred everywhere 
Lives are threatened and live in fear 
Some people just don't care 
See destruction and despair


  GUITAR SOLO
e|---12-----|-15-12----12------------------------------------------------------|
B|------15~-|-------15----15-12-15-12h15-12----12------------------------------|
G|----------|-------------------------------14----14-12-14b-12----12-----------|
D|----------|--------------------------------------------------14----14-12-14--|
A|----------|------------------------------------------------------------------|
E|----------|------------------------------------------------------------------|
   Play 8x

e|-----------------------------------------------|-----------------|----------------------------|
B|-----------------------------------------------|-----------------|----------------------------|
G|-12----12-14b-12----12----------------------12-|----12-14b-12----|----12-14b-14b-14-12-14-12b-|
D|----14-----------14----14-12-14-------12-14----|-14-----------14-|-14-------------------------|
A|--------------------------------12-14----------|-----------------|----------------------------|
E|-----------------------------------------------|-----------------|----------------------------|
                                                       Play 6x

LEGEND
| /  slide up
| \  slide down
| h  hammer-on
| p  pull-off
| ~  vibrato
| +  harmonic
| x  Mute note

Tabbed by ErOsSKiN_Smigal
E-Mail: ad_redsamurai@hotmail.com
Comments