Acab - Racial Hatred Chords & Tabs

 

Racial Hatred Chords & Tabs

Acab Chords & Tabs

Version: 1 Type: Bass Tab 0 ratings
1 star 2 stars 3 stars 4 stars 5 stars
comments

Racial Hatred Bass Tab

   
Band		:A.C.A.B.
Song		:Racial Hatred I
Tabbed By	:unDEAD MRSMPC (undead_x@hotmail.com)
Tuning 		:Standard (E,A,D,G)

(~ = let ring)
(s = slide)

Song's Order:
	-Intro
	-Pre-Verse
	-Verse
	-Interlude1
	-Verse
	-Chorus
	-Pre-Verse
	-Verse
	-Chorus
	-Solo
	-Chorus
	-Interlude2
	-Chorus
	-Ending

Intro

  ~                               ~
G|----------------------------------------------------------------|
D|----------------------------------------------------------------|
A|----------------------------------------------------------------|
E|0-------------------------------0-------------------------------|
  1 + 2 + 3 + 4 + 1 + 2 + 3 + 4 + 1 + 2 + 3 + 4 + 1 + 2 + 3 + 4 +

  ~                               ~
G|----------------------------------------------------------------|
D|----------------------------------------------------------------|
A|----------------------------2 s 7-------------------------------|
E|0---------------------------------------------------------------|
  1 + 2 + 3 + 4 + 1 + 2 + 3 + 4 + 1 + 2 + 3 + 4 + 1 + 2 + 3 + 4 +


Pre-Verse (Repeat 4x)

      
G|--------------------------------|
D|--------------------------------|
A|----------------3---0-----------|
E|0---0-0-0-0-0-0-------3---3-5---|
  1 + 2 + 3 + 4 + 1 + 2 + 3 + 4 + 


Verse (Repeat 4x)

      
G|--------------------------------|
D|--------------------------------|
A|----------------3---0-----------|
E|0---0-0-0-0-0-0-------3---3-5---|
  1 + 2 + 3 + 4 + 1 + 2 + 3 + 4 + 


Interlude1 (Repeat 2x)


G|--------------------------------|
D|--------------------------------|
A|----------------3---0-----------|
E|0---0-0-0-0-0-0-------3---3-5---|
  1 + 2 + 3 + 4 + 1 + 2 + 3 + 4 + 


Chorus 

[ Tab from: http://www.guitartabs.cc/tabs/a/acab/racial_hatred_btab.html ]
G|----------------------------------------------------------------|
D|----------------------------------------------------4-4-5-5-7-7-|
A|----------------7---7-7-7-7-5-5-3---3-3-3-3-3-3-5---------------|
E|3---3-3-3-3-3-3-------------------------------------------------|
  1 + 2 + 3 + 4 + 1 + 2 + 3 + 4 + 1 + 2 + 3 + 4 + 1 + 2 + 3 + 4 + 


G|----------------------------------------------------------------|
D|5---5-5-5-5-4-4-------------------------------------4-4-5-5-7-7-|
A|----------------7---7-7-7-7-5-5-3---3-3-3-3-3-3-5---------------|
E|----------------------------------------------------------------|
  1 + 2 + 3 + 4 + 1 + 2 + 3 + 4 + 1 + 2 + 3 + 4 + 1 + 2 + 3 + 4 + 


G|----------------------------------------------------------------|
D|5---5-5-5-5-4-4-------------------------------------4-4-5-5-7-7-|
A|----------------7---7-7-7-7-5-5-3---3-3-3-3-3-3-5---------------|
E|----------------------------------------------------------------|
  1 + 2 + 3 + 4 + 1 + 2 + 3 + 4 + 1 + 2 + 3 + 4 + 1 + 2 + 3 + 4 + 


G|----------------------------------------------------------------|
D|5---5-5-5-5-4-4-------------------------------------------------|
A|----------------7---7-7-7-7-5-5-3---3-3-3-3-3-3-5---5-5-5-5-5-5-|
E|----------------------------------------------------------------|
  1 + 2 + 3 + 4 + 1 + 2 + 3 + 4 + 1 + 2 + 3 + 4 + 1 + 2 + 3 + 4 + 


Solo (Repeat 8x)


G|--------------------------------|
D|--------------------------------|
A|----------------3---0-----------|
E|0---0-0-0-0-0-0-------3---3-5---|
  1 + 2 + 3 + 4 + 1 + 2 + 3 + 4 + 


Interlude2


G|----------------------------------------------------------------|
D|----------------------------------------------------------------|
A|--------------------------------------------2 s 7-7-7-7-7-7-7-7-|
E|0---0-0-0-0-0-0-0-0-0-0-0-0-0-0-0-0-0-0-0-0---------------------|
  1 + 2 + 3 + 4 + 1 + 2 + 3 + 4 + 1 + 2 + 3 + 4 + 1 + 2 + 3 + 4 + 


Ending

  ~
G|---------------|
D|---------------|
A|---------------|
E|3--------------|
  1 + 2 + 3 + 4 +
Comments