Ac Dc - You Shook Me All Night Long Chords & Tabs

 

You Shook Me All Night Long Chords & Tabs

Ac Dc Chords & Tabs

Version: 6 Type: Tab 0 ratings
1 star 2 stars 3 stars 4 stars 5 stars
comments

You Shook Me All Night Long Tab

Artist:AC/DC
Song Title:You Shook Me All Night Long
Album:Back In Black
Email:Bam21@prodigy.net
   I think its right but email me if you know the guitar solo

                         Intro

  ---3--------5-3-3---3------2-------------------
  ---3--------3-----3---3----3------------------- play 2x
  -----------------------0---2----------2--------
  -----000000-------------0--0--3^0-3~4----------
  -----------------------------------------------
  -----------------------------------------------


                         verses 1&2  
[ Tab from: http://www.guitartabs.cc/tabs/a/ac_dc/you_shook_me_all_night_long_tab_ver_6.html ]
  ---3-----3--3--3--3--3----2----2--2--3--3--2---
  ---3-----3--3--3--3--3----3----3--3--3--3--3---
  ---0-----0--0--0--0--0----2----2--2--0--0--2---
  ---0-----2--2--0--2--0----2----0--0--0--0--0---
  ---2-----3--3--2--3--2---------------2--2------ 
  ---3-----------3-----3---------------3--3------


                         Chorus


 -----3---------------------------2-----------------------
 -----3---------------------------3-------------1-------0-
 -----0---------------0----0------2-----------0-------0---
 -----0-------------2-----0---0---------------------------
 ---------0--2--3-------2------------0--2--3--------2-----
 ---3-----------------------------------------------------

            Thats how the rest of the song goes
Comments