Ac Dc - You Shook Me All Night Long Chords & Tabs

 

You Shook Me All Night Long Chords & Tabs

Ac Dc Chords & Tabs

Version: 3 Type: Tab 22 ratings
1 star 2 stars 3 stars 4 stars 5 stars
comments

You Shook Me All Night Long Tab

   
Tablature for ACDC's You Shook Me All Night Long Complete






#----------------------------------PLEASE NOTE---------------------------------#
#This file is the author's own work and represents their interpretation of the #
#song. You may only use this file for private study, scholarship, or research. #
#------------------------------------------------------------------------------#

YOU SHOOK ME ALL NIGHT LONG COMPLETEAs recorded by ACDC(From the 1980 Album BACK IN BLACK)Transcribed by Christopher Guilford (chris88guil@hotmail.com)Music by Angus Young/Malcom Young/Brian JohnsonGtr I (E A D G B E) - 'Untitled'

  Q=126
 4/4
  Gtr I
  Q   E E E E E E   +E  E E E E E E E   H.      E E   +Q.   E E E E E
|-3-------------5-|-(5)-3-3---3-3-----|-2---------2-|-(2)-------------|
|-3-------------3-|-(3)-3-3---3-3-----|-3---------3-|-(3)-------------|
|-0-------------0-|-(0)-0-0---0-0-----|-2---------2-|-(2)-------2-----|
|-0---0-0-0-0-0-0-|-(0)-----0-----0-0-|-0-------3-0-|-(0)---3h4---3-0-|
|-----------------|-------------------|-------------|-----------------|
|-----------------|-------------------|-------------|-----------------|


  Q  E E E E E E   +E  E E E E E E E   W          +H.      Q
|-3------------5-|-(5)-3-3---3-2-----|-2--------|-(2)---------|
|-3------------3-|-(3)-3-3---3-3-----|-3--------|-(3)---------|
|-0------------0-|-(0)-0-0---0-0-----|-2--------|-(2)---------|
|-0--0-0-0-0-0-0-|-(0)-----0-----0-0-|-0--------|-(0)---------|
|----------------|-------------------|----------|-------------|
|----------------|-------------------|----------|-------------|


  Q  Q  Q  E E   +E  E E E E E E E   +E  E Q  Q  E E   +E  E E E E E E E
|-3----------3-|-(3)-3-3---3---3-2-|-(2)-2---------3-|-(3)-3-2---3---2---|
|-3----------3-|-(3)-3-3---3---3-3-|-(3)-3---------3-|-(3)-3-3---3---3---|
|-0----------0-|-(0)-0-0---0---0-2-|-(2)-2---------0-|-(0)-0-2---0---2---|
|-0----------2-|-(2)-2-0---2---0-0-|-(0)-0---------0-|-(0)-0-0---0---0---|
|-2----------3-|-(3)-3-2---3---2---|---------------2-|-(2)-2-----2-------|
|-3------------|-------3-------3---|---------------3-|-(3)-3-----3-------|


  Q  Q  Q  E E   +E  E E E E E E E   +E  E Q  Q  E E   +E  E E E E E E E
|-3----------3-|-(3)-3-3---3---3-2-|-(2)-2---------3-|-(3)-3-2---3---2---|
|-3----------3-|-(3)-3-3---3---3-3-|-(3)-3---------3-|-(3)-3-3---3---3---|
|-0----------0-|-(0)-0-0---0---0-2-|-(2)-2---------0-|-(0)-0-2---0---2---|
|-0----------2-|-(2)-2-0---2---0-0-|-(0)-0---------0-|-(0)-0-0---0---0---|
|-2----------3-|-(3)-3-2---3---2---|---------------2-|-(2)-2-----2-------|
|-3------------|-------3-------3---|---------------3-|-(3)-3-----3-------|


  Q  Q  Q  E E   +E  E E E E E E E   +E  E Q  Q  E E   +E  E E E E E E E
|-3----------3-|-(3)-3-3---3---3-2-|-(2)-2---------3-|-(3)-3-2---3---2---|
|-3----------3-|-(3)-3-3---3---3-3-|-(3)-3---------3-|-(3)-3-3---3---3---|
|-0----------0-|-(0)-0-0---0---0-2-|-(2)-2---------0-|-(0)-0-2---0---2---|
|-0----------2-|-(2)-2-0---2---0-0-|-(0)-0---------0-|-(0)-0-0---0---0---|
|-2----------3-|-(3)-3-2---3---2---|---------------2-|-(2)-2-----2-------|
|-3------------|-------3-------3---|---------------3-|-(3)-3-----3-------|


  Q  Q  Q  E E   +E  E E E E E E E   +E  E Q  Q  E E   +E  E E E E E E E
|-3----------3-|-(3)-3-3---3---3-2-|-(2)-2---------3-|-(3)-3-2---3---2---|
|-3----------3-|-(3)-3-3---3---3-3-|-(3)-3---------3-|-(3)-3-3---3---3---|
|-0----------0-|-(0)-0-0---0---0-2-|-(2)-2---------0-|-(0)-0-2---0---2---|
|-0----------2-|-(2)-2-0---2---0-0-|-(0)-0---------0-|-(0)-0-0---0---0---|
|-2----------3-|-(3)-3-2---3---2---|---------------2-|-(2)-2-----2-------|
|-3------------|-------3-------3---|---------------3-|-(3)-3-----3-------|


  Q  Q  Q  E E   +E  E E E E E E E   +E  E Q  Q  E E   +E  E E E E E E E
|-3----------3-|-(3)-3-3---3---3-2-|-(2)-2---------3-|-(3)-3-2---3---2---|
|-3----------3-|-(3)-3-3---3---3-3-|-(3)-3---------3-|-(3)-3-3---3---3---|
|-0----------0-|-(0)-0-0---0---0-2-|-(2)-2---------0-|-(0)-0-2---0---2---|
|-0----------2-|-(2)-2-0---2---0-0-|-(0)-0---------0-|-(0)-0-0---0---0---|
|-2----------3-|-(3)-3-2---3---2---|---------------2-|-(2)-2-----2-------|
|-3------------|-------3-------3---|---------------3-|-(3)-3-----3-------|


  Q  Q  Q  E E   +E  E E E E E E E   +Q   Q  E E E E   +Q   Q  Q  Q E
|-3----------3-|-(3)-3-3---3---3-2-|-(2)--2--2-2-2-2-|-(2)--2--2--2---|
|-3----------3-|-(3)-3-3---3---3-3-|-(3)--3--3-3-3-3-|-(3)--3--3--3---|
|-0----------0-|-(0)-0-0---0---0-2-|-(2)--2--2-2-2-2-|-(2)--2--2--2---|
|-0----------2-|-(2)-2-0---2---0-0-|-(0)--0--0-0-0-0-|-(0)--0--0--0---|
|-2----------3-|-(3)-3-2---3---2---|-----------------|----------------|
|-3------------|-------3-------3---|-----------------|----------------|


  Q  Q  +E  E E E   +E  E E E +E  E E E   E E Q  +E  E E E   +E  E E E E E E E
|----3--(3)-------|-------3---------3---|-----2--(2)-------|-------3-----3---3-|
|----3--(3)-------|-------3---------3---|-----3--(3)-------|-------3-----3---3-|
|----0--(0)-------|-----0-0-------0-0---|-2---2--(2)-------|-----0-0---0-0---0-|
|----0--(0)-------|-------------------0-|---0-0--(0)-------|-------------------|
|----2--(2)-0-2-3-|-(3)-----2-(2)-------|------------0-2-3-|-(3)-----2-----2---|
|-3---------------|---------------------|------------------|-------------------|


  Q  Q  +E  E E E   +E  E E E +E  E E E   E E Q  +E  E E E   +E  E E E E E E E
|----3--(3)-------|-------3---------3---|-----2--(2)-------|-------3-----3---3-|
|----3--(3)-------|-------3---------3---|-----3--(3)-------|-------3-----3---3-|
|----0--(0)-------|-----0-0-------0-0---|-2---2--(2)-------|-----0-0---0-0---0-|
|----0--(0)-------|-------------------0-|---0-0--(0)-------|-------------------|
|----2--(2)-0-2-3-|-(3)-----2-(2)-------|------------0-2-3-|-(3)-----2-----2---|
|-3---------------|---------------------|------------------|-------------------|


  Q  Q  Q  E E   +E  E E E E E E E   +E  E Q  Q  E E   +E  E E E E E E E
|-3----------3-|-(3)-3-3---3---3-2-|-(2)-2---------3-|-(3)-3-2---3---2---|
|-3----------3-|-(3)-3-3---3---3-3-|-(3)-3---------3-|-(3)-3-3---3---3---|
|-0----------0-|-(0)-0-0---0---0-2-|-(2)-2---------0-|-(0)-0-2---0---2---|
|-0----------2-|-(2)-2-0---2---0-0-|-(0)-0---------0-|-(0)-0-0---0---0---|
|-2----------3-|-(3)-3-2---3---2---|---------------2-|-(2)-2-----2-------|
|-3------------|-------3-------3---|---------------3-|-(3)-3-----3-------|


  Q  Q  Q  E E   +E  E E E E E E E   +E  E Q  Q  E E   +E  E E E E E E E
|-3----------3-|-(3)-3-3---3---3-2-|-(2)-2---------3-|-(3)-3-2---3---2---|
|-3----------3-|-(3)-3-3---3---3-3-|-(3)-3---------3-|-(3)-3-3---3---3---|
|-0----------0-|-(0)-0-0---0---0-2-|-(2)-2---------0-|-(0)-0-2---0---2---|
|-0----------2-|-(2)-2-0---2---0-0-|-(0)-0---------0-|-(0)-0-0---0---0---|
|-2----------3-|-(3)-3-2---3---2---|---------------2-|-(2)-2-----2-------|
|-3------------|-------3-------3---|---------------3-|-(3)-3-----3-------|


  Q  Q  Q  E E   +E  E E E E E E E   +E  E Q  Q  E E   +E  E E E E E E E
|-3----------3-|-(3)-3-3---3---3-2-|-(2)-2---------3-|-(3)-3-2---3---2---|
|-3----------3-|-(3)-3-3---3---3-3-|-(3)-3---------3-|-(3)-3-3---3---3---|
|-0----------0-|-(0)-0-0---0---0-2-|-(2)-2---------0-|-(0)-0-2---0---2---|
|-0----------2-|-(2)-2-0---2---0-0-|-(0)-0---------0-|-(0)-0-0---0---0---|
|-2----------3-|-(3)-3-2---3---2---|---------------2-|-(2)-2-----2-------|
|-3------------|-------3-------3---|---------------3-|-(3)-3-----3-------|


  Q  Q  Q  E E   +E  E E E E E E E   +Q   Q  E E E E   +Q   Q  Q  Q
|-3----------3-|-(3)-3-3---3---3-2-|-(2)--2--2-2-2-2-|-(2)--2--2--2--|
|-3----------3-|-(3)-3-3---3---3-3-|-(3)--3--3-3-3-3-|-(3)--3--3--3--|
|-0----------0-|-(0)-0-0---0---0-2-|-(2)--2--2-2-2-2-|-(2)--2--2--2--|
|-0----------2-|-(2)-2-0---2---0-0-|-(0)--0--0-0-0-0-|-(0)--0--0--0--|
|-2----------3-|-(3)-3-2---3---2---|-----------------|---------------|
|-3------------|-------3-------3---|-----------------|---------------|


  Q  Q  +E  E E E   +E  E E E +E  E E E   E E Q  +E  E E E   +E  E E E E E E E
|----3--(3)-------|-------3---------3---|-----2--(2)-------|-------3-----3---3-|
|----3--(3)-------|-------3---------3---|-----3--(3)-------|-------3-----3---3-|
|----0--(0)-------|-----0-0-------0-0---|-2---2--(2)-------|-----0-0---0-0---0-|
|----0--(0)-------|-------------------0-|---0-0--(0)-------|-------------------|
|----2--(2)-0-2-3-|-(3)-----2-(2)-------|------------0-2-3-|-(3)-----2-----2---|
|-3---------------|---------------------|------------------|-------------------|


  Q  Q  +E  E E E   +E  E E E +E  E E E   E E Q  +E  E E E   +E  E E E E E E E
|----3--(3)-------|-------3---------3---|-----2--(2)-------|-------3-----3---3-|
|----3--(3)-------|-------3---------3---|-----3--(3)-------|-------3-----3---3-|
|----0--(0)-------|-----0-0-------0-0---|-2---2--(2)-------|-----0-0---0-0---0-|
|----0--(0)-------|-------------------0-|---0-0--(0)-------|-------------------|
|----2--(2)-0-2-3-|-(3)-----2-(2)-------|------------0-2-3-|-(3)-----2-----2---|
|-3---------------|---------------------|------------------|-------------------|

[ Tab from: http://www.guitartabs.cc/tabs/a/ac_dc/you_shook_me_all_night_long_tab_ver_3.html ]
  Q  Q  +E  E E E   +E  E E E +E  E E E   E E Q  +E  E E E   +E  E E E E E E E
|----3--(3)-------|-------3---------3---|-----2--(2)-------|-------3-----3---3-|
|----3--(3)-------|-------3---------3---|-----3--(3)-------|-------3-----3---3-|
|----0--(0)-------|-----0-0-------0-0---|-2---2--(2)-------|-----0-0---0-0---0-|
|----0--(0)-------|-------------------0-|---0-0--(0)-------|-------------------|
|----2--(2)-0-2-3-|-(3)-----2-(2)-------|------------0-2-3-|-(3)-----2-----2---|
|-3---------------|---------------------|------------------|-------------------|


  Q  Q  +E  E E E   +E  E E E +E  E E E   +E  E Q  E E E E   +E  E Q  Q  E E
|----3--(3)-------|-------3---------3-2-|-(2)-2-2--2-2-2-3-|-(3)---3--3--3-2-|
|----3--(3)-------|-------3---------3-3-|-(3)-3-3--3-3-3-3-|-(3)---3--3--3-3-|
|----0--(0)-------|-----0-0-------0-0-2-|-(2)-2-2--2-2-2-0-|-(0)---0--0--0-2-|
|----0--(0)-------|-------------------0-|-(0)-0-0--0-0-0-0-|-(0)---0--0--0-0-|
|----2--(2)-0-2-3-|-(3)-----2-(2)-------|------------------|-------2--2--2-0-|
|-3---------------|---------------------|------------------|-----3-3--3--3---|


                                               ~~~~~~~~~
  +E  E Q  E E E E   +E  E Q  E E E E   Q     +Q   +H
|-(2)-2-2--2-2-2-3-|-(3)-3-3--3-3-3-3-|--------------------|
|-(3)-3-3--3-3-3-3-|-(3)-3-3--3-3-3-3-|--------------------|
|-(2)-2-2--2-2-2-2-|-(2)-2-2--2-2-2-2-|-5b7===(5)--(5)r----|
|-(0)-0-0--0-0-0-0-|-(0)-0-0--0-0-0-0-|--------------------|
|-(0)-0-0--0-0-0-0-|-(0)-0-0--0-0-0-0-|--------------------|
|------------------|------------------|--------------------|


                                ~~~             ~~~
  E E E a    +E  +E  E E E   E  Q.   E E E E   +Q   E E Q  E E
|-3------------------------|-----------------|-----------------|
|---3-6--------------------|-----------------|----------3------|
|-------5b7==(5)-(5)r5-3---|-----------------|----------3------|
|------------------------5-|----5----5-3-----|-------------5---|
|--------------------------|-5-(5)-------5-3-|-(3)-----------5-|
|--------------------------|-----------------|------6-3--------|


  ~
  Q  E E E  E E E   +E  a E E E +E  E E  E
|-----------------|----------------------------|
|-------------6-6-|-(6)-----8-8-(8)---8-10b12==|
|----3-----/7-----|-----7s9---------9----------|
|-5---------------|----------------------------|
|-----------------|----------------------------|
|-----------------|----------------------------|


                                                            ~
   +E   E  E  +E  Q.    a      +E     +E    a      +E   E E Q  E  a      +E
|------10--------------------------|-----------------------------------------|
|-(10)----10r(10)-8----11b13==(11)-|-(11)r-10b12==(10)r-8---8----18b20==(18)-|
|----------------------------------|----------------------9----9-------------|
|----------------------------------|-----------------------------------------|
|----------------------------------|-----------------------------------------|
|----------------------------------|-----------------------------------------|


   ~~
   H     +E    E  E  E    a      +E   E  E  E  E  E  a      +Q
|-------------15-------|------------------------------------------|
|-18----(18)r----15-18-|----------------------17------------------|
|----------------------|-17b19==(17)r17-15----17-15-17b19==(17)r--|
|----------------------|-------------------17---------------------|
|----------------------|------------------------------------------|
|----------------------|------------------------------------------|


   E  a      +Q     E   E  +E   E  E    E  E  E  E  +Q     E  a      +E
|------------------------------------|-----------------------18b20==(18)-|
|-18---------------18----------------|-17-15-17-15-(15)\--15-------------|
|----17b19==(17)--(17)-17r(17)-15----|-17-15-17-15-(15)\-----------------|
|---------------------------------17-|-----------------------------------|
|------------------------------------|-----------------------------------|
|------------------------------------|-----------------------------------|


   ~~~          ~~~~
   Q    a      +Q    +E   a      +E   +E   E    E  E  E  E      +Q    +S    S  E
|-18r--17b19==(17)--(17)r17b18==(17)r(17)-15-|-17----15--------------------15----|
|--------------------------------------------|----17----18b20==(18)--(18)r----18-|
|--------------------------------------------|-----------------------------------|
|--------------------------------------------|-----------------------------------|
|--------------------------------------------|-----------------------------------|
|--------------------------------------------|-----------------------------------|


                                    ~~~~~                                      ~~
   a      +E   +E   E  a      +E   +Q    E   E    E  E  E  E  a      +E   +E   Q
|----------------------------------------------|-15----15-15-17b18==(17)r(17)-15--|
|------------------------------------------/17-|----17----------------------------|
|-17b19==(17)r(17)-15-17b19==(17)-(17)r--------|----------------------------------|
|----------------------------------------------|----------------------------------|
|----------------------------------------------|----------------------------------|
|----------------------------------------------|----------------------------------|


  Q  Q  +E  E E E   +E  E E E +E  E E E   E E Q  +E  E E E   +E  E E E E E E E
|----3--(3)-------|-------3---------3---|-----2--(2)-------|-------3-----3---3-|
|----3--(3)-------|-------3---------3---|-----3--(3)-------|-------3-----3---3-|
|----0--(0)-------|-----0-0-------0-0---|-2---2--(2)-------|-----0-0---0-0---0-|
|----0--(0)-------|-------------------0-|---0-0--(0)-------|-------------------|
|----2--(2)-0-2-3-|-(3)-----2-(2)-------|------------0-2-3-|-(3)-----2-----2---|
|-3---------------|---------------------|------------------|-------------------|


  Q  Q  +E  E E E   +E  E E E +E  E E E   E E Q  +E  E E E   +E  E E E E E E E
|----3--(3)-------|-------3---------3---|-----2--(2)-------|-------3-----3---3-|
|----3--(3)-------|-------3---------3---|-----3--(3)-------|-------3-----3---3-|
|----0--(0)-------|-----0-0-------0-0---|-2---2--(2)-------|-----0-0---0-0---0-|
|----0--(0)-------|-------------------0-|---0-0--(0)-------|-------------------|
|----2--(2)-0-2-3-|-(3)-----2-(2)-------|------------0-2-3-|-(3)-----2-----2---|
|-3---------------|---------------------|------------------|-------------------|


  Q  Q  +E  E E E   +E  E E E +E  E E E   E E Q  +E  E E E   +E  E E E E E E E
|----3--(3)-------|-------3---------3---|-----2--(2)-------|-------3-----3---3-|
|----3--(3)-------|-------3---------3---|-----3--(3)-------|-------3-----3---3-|
|----0--(0)-------|-----0-0-------0-0---|-2---2--(2)-------|-----0-0---0-0---0-|
|----0--(0)-------|-------------------0-|---0-0--(0)-------|-------------------|
|----2--(2)-0-2-3-|-(3)-----2-(2)-------|------------0-2-3-|-(3)-----2-----2---|
|-3---------------|---------------------|------------------|-------------------|


  Q  Q  +E  E E E   +E  E E E +E  E E E
|----3--(3)-------|-------3---------3-2-|
|----3--(3)-------|-------3---------3-3-|
|----0--(0)-------|-----0-0-------0-0-2-|
|----0--(0)-------|-------------------0-|
|----2--(2)-0-2-3-|-(3)-----2-(2)-------|
|-3--3--(3)-------|---------------------|


  +E  E Q  E E E E   +E  E E E +Q   E E
|-(2)-2-2--2-3-3-3-|-(3)-3-3-3-(3)--3-2-|
|-(3)-3-3--3-3-3-3-|-(3)-3-3-3-(3)--3-3-|
|-(2)-2-2--2-0-0-0-|-(0)-0-0-0-(0)--0-2-|
|-(0)-0-0--0-0-0-0-|-(0)-----0-(0)--0-0-|
|------------0-2-3-|-(3)-----2-(2)--0---|
|------------------|--------------------|


  +E  E Q  +E  E E E   E E E E +Q   E E   +E  E E E E E E E   E E E E E E E E
|-(2)-2-2--(2)-3-3-3-|-3-3-3-3-(3)--3-2-|-(2)-2-2-2-2-2-2-2-|-2-2-2-2-2-2-2-2-|
|-(3)-3-3--(3)-3-3-3-|-3-3-3-3-(3)--3-3-|-(3)-3-3-3-3-3-3-3-|-3-3-3-3-3-3-3-3-|
|-(2)-2-2--(2)-0-0-0-|-0-0-0-0-(0)--0-2-|-(2)-2-2-2-2-2-2-2-|-2-2-2-2-2-2-2-2-|
|-(0)-0-0--(0)-0-0-0-|-0-----0-(0)--0-0-|-(0)-0-0-0-0-0-0-0-|-0-0-0-0-0-0-0-0-|
|--------------0-2-3-|-3-----2-(2)--0---|-------------------|-----------------|
|--------------------|------------------|-------------------|-----------------|


  +E  E E E E E E E
|-(2)-2-2-2-2-2-2-2-|----|
|-(3)-3-3-3-3-3-3-3-|----|
|-(2)-2-2-2-2-2-2-2-|----|
|-(0)-0-0-0-0-0-0-0-|----|
|-------------------|----|
|-------------------|----|




Duration Legend
---------------
W - whole; H - half; Q - quarter; E - 8th; S - 16th; T - 32nd; X - 64th; a - acciaccatura
+ - note tied to previous; . - note dotted; .. - note double dotted
Uncapitalized letters represent notes that are staccato (1/2 duration)
Irregular groupings are notated above the duration line
Duration letters will always appear directly above the note/fret number it represents the
duration for.  Duration letters with no fret number below them represent rests.  Multi-
bar rests are notated in the form Wxn, where n is the number of bars to rest for.  Low
melody durations appear below the staff

Tablature Legend
----------------
 h   - hammer-on
 p   - pull-off
 b   - bend
 pb  - pre-bend
 r   - bend release (if no number after the r, then release immediately)
 /\  - slide into or out of (from/to "nowhere")
 s   - legato slide
 S   - shift slide
<n> - natural harmonic
[n]  - artificial harmonic
n(n) - tapped harmonic
 ~   - vibrato
 tr  - trill
 T   - tap
 TP  - trem. picking
 PM  - palm muting
\n/  - tremolo bar dip; n = amount to dip
 \n  - tremolo bar down
 n/  - tremolo bar up
/n\  - tremolo bar inverted dip
 =   - hold bend; also acts as connecting device for hammers/pulls
 <> - volume swell (louder/softer)
 x   - on rhythm slash represents muted slash
 o   - on rhythm slash represents single note slash

Misc Legend
-----------
 |  - bar
||  - double bar
||o - repeat start
o|| - repeat end
*|  - double bar (ending)
 :  - bar (freetime)
 $  - Segno
 &  - Coda
Tempo markers - <E/E./Q/Q./H/H.> = BPM(8/16=s8/s16), where s8 = swing 8ths, s16 = swing 16ths

** Generated using Power Tab Editor by Brad Larsen:   The Official Power Tab Web Site


Comments