Ac Dc - You Shook Me All Night Long Chords & Tabs

 

You Shook Me All Night Long Chords & Tabs

Ac Dc Chords & Tabs

Version: 19 Type: Tab 0 ratings
1 star 2 stars 3 stars 4 stars 5 stars
comments

You Shook Me All Night Long Tab

Band: ac dc
Song: You shook me all night
Album: back in black
i love this song hope u do to :D


E------------3-----------------------------------------------]
G--------------3-6-------------------------------------------]
B---5b7------------5b7-----------3b4----------------3b4------]
D-------------------------5---5-------5-3--------------------]
A---------------------------5-------------5-3--1-------------]
E------------------------------------------------3-----------]

E----------------------------------------10------------------]
G--------------6-6-------8-8-----8-10b12----12b10-8----------]
B---3b4-----/7-------7/9-------9-----------------------------]
D------------------------------------------------------------]
A------------------------------------------------------------]
E------------------------------------------------------------]
[ Tab from: http://www.guitartabs.cc/tabs/a/ac_dc/you_shook_me_all_night_long_tab_ver_19.html ]
E------------------------------------15----------------------]
G----------------8---8-------18b20--------15--18-------------]
B---12b14/12b10----9-----------------------------17b19-15----]
D------------------------------------------------------------]
A------------------------------------------------------------]
E------------------------------------------------------------]

E------------------------------------------------------------]
G--------------------18---------18--------18----------17-15--]
B------17--15-17b19------17b19-----17b19------15------17-15--]
D--17---------------------------------------------17---------]
A------------------------------------------------------------]
E------------------------------------------------------------]

E--------------18b20-(20)--15--17--15-------------15-----15--]
G-----15--15-------------------17--15-----------------17-----]
B-17--15--------------------------------17b19--15------------]
D-17---------------------------------------------------------]
A------------------------------------------------------------]
E------------------------------------------------------------]

E---17b19--15------------------------------------------------]
G------------------------------------------------------------]
B------------------------------------------------------------]
D------------------------------------------------------------]
A------------------------------------------------------------]
E------------------------------------------------------------]
Comments