Ac Dc - You Shook Me All Night Long Chords & Tabs

 

You Shook Me All Night Long Chords & Tabs

Ac Dc Chords & Tabs

Version: 17 Type: Tab 0 ratings
1 star 2 stars 3 stars 4 stars 5 stars
comments

You Shook Me All Night Long Tab

   
You Shook Me All Night Long by Ac Dc from "Back in Black"
(A. Young, M. Young, B. Johnson)

I am pretty sure this tab is right, but there might be notes that i didnt hear. The song 
really easy. So here it is:

Tuning: E A D G B E

Intro
--------------------------------------------------------------------2-|
--8--10--8---8---7----7------7------7-----------8--10--8---8---7----3-|
--7--7---7-----7---7--7------7------7-----------7--7---7-----7---7--2-|
----------------------0------0-----------0--------------------------0-|
-------------------------7/8----7/8----8------------------------------|
----------------------------------------------------------------------|

Verse
--3--33-3-3-3-2--33-2-3-2------3--33-3-3-3-2--33-2-3-2----------------|
--3--33-3-3-3-3--33-3-3-3------3--33-3-3-3-3--33-3-3-3----------------|
--0--00-0-0-0-2--00-2-0-2------0--00-0-0-0-2--00-2-0-2----------------|
--0--22-0-2-0-0--00-0-0-0------0--22-0-2-0-0--00-0-0-0----------------|
--2--33-2-3-2----22---2--------2--33-2-3-2----22---2------------------|
--3-----3---3----33---3--------3-----3---3----33---3------------------|

--3--33-3-3-3-2--33-2-3-2------3--33-3-3-3-2--33-2-3-2----------------|
--3--33-3-3-3-3--33-3-3-3------3--33-3-3-3-3--33-3-3-3----------------|
--0--00-0-0-0-2--00-2-0-2------0--00-0-0-0-2--00-2-0-2----------------|
--0--22-0-2-0-0--00-0-0-0------0--22-0-2-0-0--00-0-0-0----------------|
--2--33-2-3-2----22---2--------2--33-2-3-2----22---2------------------|
--3-----3---3----33---3--------3-----3---3----33---3------------------|

--3--33-3-3-3-2--33-2-3-2------3--33-3-3-3-2--33-2-3-2----------------|
--3--33-3-3-3-3--33-3-3-3------3--33-3-3-3-3--33-3-3-3----------------|
--0--00-0-0-0-2--00-2-0-2------0--00-0-0-0-2--00-2-0-2----------------|
--0--22-0-2-0-0--00-0-0-0------0--22-0-2-0-0--00-0-0-0----------------|
--2--33-2-3-2----22---2--------2--33-2-3-2----22---2------------------|
--3-----3---3----33---3--------3-----3---3----33---3------------------|

Chorus
----3---------------------2-------------------------------------------|
----3----------3-----3----3----------3-----3--------------------------|
----0--------0-----0------2--------0-----0----------------------------|
----0-------------------0-0-------------------------------------------|
----2--0-2-3-----2-----------0-2-3-----2------------------------------|
--3-3-----------------------------------------------------------------|

----3---------------------2-------------------------------------------|
----3----------3-----3----3----------3-----3--------------------------|
----0--------0-----0------2--------0-----0----------------------------|
----0-------------------0-0-------------------------------------------|
----2--0-2-3-----2-----------0-2-3-----2------------------------------|
--3-3-----------------------------------------------------------------|

Verse
--3--33-3-3-3-2--33-2-3-2------3--33-3-3-3-2--33-2-3-2----------------|
--3--33-3-3-3-3--33-3-3-3------3--33-3-3-3-3--33-3-3-3----------------|
--0--00-0-0-0-2--00-2-0-2------0--00-0-0-0-2--00-2-0-2----------------|
--0--22-0-2-0-0--00-0-0-0------0--22-0-2-0-0--00-0-0-0----------------|
--2--33-2-3-2----22---2--------2--33-2-3-2----22---2------------------|
--3-----3---3----33---3--------3-----3---3----33---3------------------|

--3--33-3-3-3-2--33-2-3-2------3--33-3-3-3-2--33-2-3-2----------------|
--3--33-3-3-3-3--33-3-3-3------3--33-3-3-3-3--33-3-3-3----------------|
--0--00-0-0-0-2--00-2-0-2------0--00-0-0-0-2--00-2-0-2----------------|
--0--22-0-2-0-0--00-0-0-0------0--22-0-2-0-0--00-0-0-0----------------|
--2--33-2-3-2----22---2--------2--33-2-3-2----22---2------------------|
--3-----3---3----33---3--------3-----3---3----33---3------------------|

Chorus
----3---------------------2-------------------------------------------|
----3----------3-----3----3----------3-----3--------------------------|
----0--------0-----0------2--------0-----0----------------------------|
----0-------------------0-0-------------------------------------------|
----2--0-2-3-----2-----------0-2-3-----2------------------------------|
--3-3-----------------------------------------------------------------|

----3---------------------2-------------------------------------------|
----3----------3-----3----3----------3-----3--------------------------|
----0--------0-----0------2--------0-----0----------------------------|
----0-------------------0-0-------------------------------------------|
----2--0-2-3-----2-----------0-2-3-----2------------------------------|
--3-3-----------------------------------------------------------------|
[ Tab from: http://www.guitartabs.cc/tabs/a/ac_dc/you_shook_me_all_night_long_tab_ver_17.html ]
----3---------------------2-------------------------------------------|
----3----------3-----3----3----------3-----3--------------------------|
----0--------0-----0------2--------0-----0----------------------------|
----0-------------------0-0-------------------------------------------|
----2--0-2-3-----2-----------0-2-3-----2------------------------------|
--3-3-----------------------------------------------------------------|

----3----------------------------2------------------------------------|
----3----------3-----3----33333333-3333333333333333-------------------|
----0--------0-----0------2222222--2222222222222222-------------------|
----0-------------------0---------------------------------------------|
----2--0-2-3-----2----------------------------------------------------|
--3-3-----------------------------------------------------------------|

Solo
------3----6----------------------------------------------------------|
--------3----5---------------------------------------6-6------8-8-----|
--5^------------3-------------------3--------3---5/7------7/9---------|
-------------------5------5-3---------5----5--------------------------|
----------------------5-------5-3-------------------------------------|
----------------------------------------------------------------------|

--------------------8----------15--15---------------------------------|
----8--10^^-8-----8---10-8------------15-18---------17-15-------------|
--9-------------9----------------------------17-15--17-15-------------|
----------------------------------------------------------------------|
----------------------------------------------------------------------|
----------------------------------------------------------------------|

---------------------------------18-17-17-15-----17-----15------------|
------18-----18--------------15---------------17-----17---------------|
--17^----17^----17^--15-----------------------------------------------|
------------------------17--------------------------------------------|
----------------------------------------------------------------------|
----------------------------------------------------------------------|

---------15-17^---18^-18-15-------------------------------------------|
--17-17---------------------------------------------------------------|
----------------------------------------------------------------------|
----------------------------------------------------------------------|
----------------------------------------------------------------------|
----------------------------------------------------------------------|

Verse
----3---------------------2-------------------------------------------|
----3----------3-----3----3----------3-----3--------------------------|
----0--------0-----0------2--------0-----0----------------------------|
----0-------------------0-0-------------------------------------------|
----2--0-2-3-----2-----------0-2-3-----2------------------------------|
--3-3-----------------------------------------------------------------|

----3---------------------2-------------------------------------------|
----3----------3-----3----3----------3-----3--------------------------|
----0--------0-----0------2--------0-----0----------------------------|
----0-------------------0-0-------------------------------------------|
----2--0-2-3-----2-----------0-2-3-----2------------------------------|
--3-3-----------------------------------------------------------------|

----3---------------------2-------------------------------------------|
----3----------3-----3----3----------3-----3--------------------------|
----0--------0-----0------2--------0-----0----------------------------|
----0-------------------0-0-------------------------------------------|
----2--0-2-3-----2-----------0-2-3-----2------------------------------|
--3-3-----------------------------------------------------------------|

----3-----------------------------------------------------------------|
----3----------3-----3----33333----------3-----3----------------------|
----0--------0-----0------22222--------0-----0------------------------|
----0-------------------0---------------------------------------------|
----2--0-2-3-----2---------------0-2-3-----2--------------------------|
--3-3-----------------------------------------------------------------|
                                   (ALL NIGHT LONG!)
--------------------------------2-------------------------------------|
--33333---------3-----3--33333333--3-3-3-3-3-3-3-3-3------------------|
--22222-------0-----0----2222222---2-2-2-2-2-2-2-2-2------------------|
----------------------------------------------------------------------|
--------0-2-3-----2---------------------------------------------------|
----------------------------------------------------------------------|

Well that is it, have fun with the song.
Comments